  0
SECTION
  2
HEADER
  9
$ACADVER
  1
AC1018
  9
$ACADMAINTVER
 70
     0
  9
$DWGCODEPAGE
  3
ANSI_1252
  9
$INSBASE
 10
0.0
 20
0.0
 30
0.0
  9
$EXTMIN
 10
-0.5
 20
-0.5
 30
-0.5
  9
$EXTMAX
 10
5.0
 20
5.0
 30
5.0
  9
$LIMMIN
 10
-0.5
 20
-0.5
  9
$LIMMAX
 10
5.0
 20
5.0
  9
$ORTHOMODE
 70
     0
  9
$REGENMODE
 70
     1
  9
$FILLMODE
 70
     1
  9
$QTEXTMODE
 70
     0
  9
$MIRRTEXT
 70
     1
  9
$LTSCALE
 40
1.0
  9
$ATTMODE
 70
     1
  9
$TEXTSIZE
 40
0.2
  9
$TRACEWID
 40
0.05
  9
$TEXTSTYLE
  7
Standard
  9
$CLAYER
  8
0
  9
$CELTYPE
  6
ByLayer
  9
$CECOLOR
 62
   256
  9
$CELTSCALE
 40
1.0
  9
$DISPSILH
 70
     0
  9
$DIMSCALE
 40
1.0
  9
$DIMASZ
 40
0.18
  9
$DIMEXO
 40
0.0625
  9
$DIMDLI
 40
0.38
  9
$DIMRND
 40
0.0
  9
$DIMDLE
 40
0.0
  9
$DIMEXE
 40
0.18
  9
$DIMTP
 40
0.0
  9
$DIMTM
 40
0.0
  9
$DIMTXT
 40
0.18
  9
$DIMCEN
 40
0.09
  9
$DIMTSZ
 40
0.0
  9
$DIMTOL
 70
     0
  9
$DIMLIM
 70
     0
  9
$DIMTIH
 70
     1
  9
$DIMTOH
 70
     1
  9
$DIMSE1
 70
     0
  9
$DIMSE2
 70
     0
  9
$DIMTAD
 70
     0
  9
$DIMZIN
 70
     0
  9
$DIMBLK
  1

  9
$DIMASO
 70
     1
  9
$DIMSHO
 70
     1
  9
$DIMPOST
  1

  9
$DIMAPOST
  1

  9
$DIMALT
 70
     0
  9
$DIMALTD
 70
     2
  9
$DIMALTF
 40
25.4
  9
$DIMLFAC
 40
1.0
  9
$DIMTOFL
 70
     0
  9
$DIMTVP
 40
0.0
  9
$DIMTIX
 70
     0
  9
$DIMSOXD
 70
     0
  9
$DIMSAH
 70
     0
  9
$DIMBLK1
  1

  9
$DIMBLK2
  1

  9
$DIMSTYLE
  2
Standard
  9
$DIMCLRD
 70
     0
  9
$DIMCLRE
 70
     0
  9
$DIMCLRT
 70
     0
  9
$DIMTFAC
 40
1.0
  9
$DIMGAP
 40
0.09
  9
$DIMJUST
 70
     0
  9
$DIMSD1
 70
     0
  9
$DIMSD2
 70
     0
  9
$DIMTOLJ
 70
     1
  9
$DIMTZIN
 70
     0
  9
$DIMALTZ
 70
     0
  9
$DIMALTTZ
 70
     0
  9
$DIMUPT
 70
     0
  9
$DIMDEC
 70
     4
  9
$DIMTDEC
 70
     4
  9
$DIMALTU
 70
     2
  9
$DIMALTTD
 70
     2
  9
$DIMTXSTY
  7
Standard
  9
$DIMAUNIT
 70
     0
  9
$DIMADEC
 70
     0
  9
$DIMALTRND
 40
0.0
  9
$DIMAZIN
 70
     0
  9
$DIMDSEP
 70
    46
  9
$DIMATFIT
 70
     3
  9
$DIMFRAC
 70
     0
  9
$DIMLDRBLK
  1

  9
$DIMLUNIT
 70
     2
  9
$DIMLWD
 70
    -2
  9
$DIMLWE
 70
    -2
  9
$DIMTMOVE
 70
     0
  9
$LUNITS
 70
     2
  9
$LUPREC
 70
     4
  9
$SKETCHINC
 40
0.1
  9
$FILLETRAD
 40
0.5
  9
$AUNITS
 70
     0
  9
$AUPREC
 70
     0
  9
$MENU
  1
.
  9
$ELEVATION
 40
0.0
  9
$PELEVATION
 40
0.0
  9
$THICKNESS
 40
0.0
  9
$LIMCHECK
 70
     0
  9
$CHAMFERA
 40
0.0
  9
$CHAMFERB
 40
0.0
  9
$CHAMFERC
 40
0.0
  9
$CHAMFERD
 40
0.0
  9
$SKPOLY
 70
     0
  9
$TDCREATE
 40
2458075.511857639
  9
$TDUCREATE
 40
2458075.470190972
  9
$TDUPDATE
 40
2458075.511858079
  9
$TDUUPDATE
 40
2458075.470191412
  9
$TDINDWG
 40
0.0000000116
  9
$TDUSRTIMER
 40
0.0000000116
  9
$USRTIMER
 70
     1
  9
$ANGBASE
 50
0.0
  9
$ANGDIR
 70
     0
  9
$PDMODE
 70
     0
  9
$PDSIZE
 40
0.0
  9
$PLINEWID
 40
0.0
  9
$SPLFRAME
 70
     0
  9
$SPLINETYPE
 70
     6
  9
$SPLINESEGS
 70
     8
  9
$HANDSEED
  5
161
  9
$SURFTAB1
 70
     6
  9
$SURFTAB2
 70
     6
  9
$SURFTYPE
 70
     6
  9
$SURFU
 70
     6
  9
$SURFV
 70
     6
  9
$UCSBASE
  2

  9
$UCSNAME
  2

  9
$UCSORG
 10
0.0
 20
0.0
 30
0.0
  9
$UCSXDIR
 10
1.0
 20
0.0
 30
0.0
  9
$UCSYDIR
 10
0.0
 20
1.0
 30
0.0
  9
$UCSORTHOREF
  2

  9
$UCSORTHOVIEW
 70
     0
  9
$UCSORGTOP
 10
0.0
 20
0.0
 30
0.0
  9
$UCSORGBOTTOM
 10
0.0
 20
0.0
 30
0.0
  9
$UCSORGLEFT
 10
0.0
 20
0.0
 30
0.0
  9
$UCSORGRIGHT
 10
0.0
 20
0.0
 30
0.0
  9
$UCSORGFRONT
 10
0.0
 20
0.0
 30
0.0
  9
$UCSORGBACK
 10
0.0
 20
0.0
 30
0.0
  9
$PUCSBASE
  2

  9
$PUCSNAME
  2

  9
$PUCSORG
 10
0.0
 20
0.0
 30
0.0
  9
$PUCSXDIR
 10
1.0
 20
0.0
 30
0.0
  9
$PUCSYDIR
 10
0.0
 20
1.0
 30
0.0
  9
$PUCSORTHOREF
  2

  9
$PUCSORTHOVIEW
 70
     0
  9
$PUCSORGTOP
 10
0.0
 20
0.0
 30
0.0
  9
$PUCSORGBOTTOM
 10
0.0
 20
0.0
 30
0.0
  9
$PUCSORGLEFT
 10
0.0
 20
0.0
 30
0.0
  9
$PUCSORGRIGHT
 10
0.0
 20
0.0
 30
0.0
  9
$PUCSORGFRONT
 10
0.0
 20
0.0
 30
0.0
  9
$PUCSORGBACK
 10
0.0
 20
0.0
 30
0.0
  9
$USERI1
 70
     0
  9
$USERI2
 70
     0
  9
$USERI3
 70
     0
  9
$USERI4
 70
     0
  9
$USERI5
 70
     0
  9
$USERR1
 40
0.0
  9
$USERR2
 40
0.0
  9
$USERR3
 40
0.0
  9
$USERR4
 40
0.0
  9
$USERR5
 40
0.0
  9
$WORLDVIEW
 70
     1
  9
$SHADEDGE
 70
     3
  9
$SHADEDIF
 70
    70
  9
$TILEMODE
 70
     1
  9
$MAXACTVP
 70
    64
  9
$PINSBASE
 10
0.0
 20
0.0
 30
0.0
  9
$PLIMCHECK
 70
     0
  9
$PEXTMIN
 10
-0.5
 20
-0.5
 30
-0.5
  9
$PEXTMAX
 10
5.0
 20
5.0
 30
5.0
  9
$PLIMMIN
 10
-0.5
 20
-0.5
  9
$PLIMMAX
 10
5.0
 20
5.0
  9
$UNITMODE
 70
     0
  9
$VISRETAIN
 70
     1
  9
$PLINEGEN
 70
     0
  9
$PSLTSCALE
 70
     1
  9
$TREEDEPTH
 70
  3020
  9
$CMLSTYLE
  2
Standard
  9
$CMLJUST
 70
     0
  9
$CMLSCALE
 40
1.0
  9
$PROXYGRAPHICS
 70
     1
  9
$MEASUREMENT
 70
     1
  9
$CELWEIGHT
370
    18
  9
$ENDCAPS
280
     0
  9
$JOINSTYLE
280
     0
  9
$LWDISPLAY
290
     1
  9
$INSUNITS
 70
     4
  9
$HYPERLINKBASE
  1

  9
$STYLESHEET
  1

  9
$XEDIT
290
     1
  9
$CEPSNTYPE
380
     0
  9
$PSTYLEMODE
290
     1
  9
$FINGERPRINTGUID
  2
{722F701D-440A-4467-BE8A-439EA148B95D}
  9
$VERSIONGUID
  2
{FAEB1C32-E019-11D5-929B-00C0DF256EC4}
  9
$EXTNAMES
290
     1
  9
$PSVPSCALE
 40
0.0
  9
$OLESTARTUP
290
     0
  9
$SORTENTS
280
   127
  9
$INDEXCTL
280
     0
  9
$HIDETEXT
280
     1
  9
$XCLIPFRAME
290
     0
  9
$HALOGAP
280
     0
  9
$OBSCOLOR
 70
   257
  9
$OBSLTYPE
280
     0
  9
$INTERSECTIONDISPLAY
280
     0
  9
$INTERSECTIONCOLOR
 70
   257
  9
$DIMASSOC
280
     2
  9
$PROJECTNAME
  1

  0
ENDSEC
  0
SECTION
  2
CLASSES
  0
CLASS
  1
ACDBDICTIONARYWDFLT
  2
AcDbDictionaryWithDefault
  3
ObjectDBX Classes
 90
        0
 91
        4
280
     0
281
     0
  0
CLASS
  1
VISUALSTYLE
  2
AcDbVisualStyle
  3
ObjectDBX Classes
 90
     4095
 91
        4
280
     0
281
     0
  0
CLASS
  1
MATERIAL
  2
AcDbMaterial
  3
ObjectDBX Classes
 90
     1153
 91
        4
280
     0
281
     0
  0
CLASS
  1
SCALE
  2
AcDbScale
  3
ObjectDBX Classes
 90
     1153
 91
        4
280
     0
281
     0
  0
CLASS
  1
TABLESTYLE
  2
AcDbTableStyle
  3
ObjectDBX Classes
 90
     4095
 91
        4
280
     0
281
     0
  0
CLASS
  1
MLEADERSTYLE
  2
AcDbMLeaderStyle
  3
ACDB_MLEADERSTYLE_CLASS
 90
     4095
 91
        4
280
     0
281
     0
  0
CLASS
  1
SUN
  2
AcDbSun
  3
SCENEOE
 90
     1153
 91
        4
280
     0
281
     0
  0
CLASS
  1
DICTIONARYVAR
  2
AcDbDictionaryVar
  3
ObjectDBX Classes
 90
        0
 91
        4
280
     0
281
     0
  0
CLASS
  1
CELLSTYLEMAP
  2
AcDbCellStyleMap
  3
ObjectDBX Classes
 90
     1152
 91
        4
280
     0
281
     0
  0
ENDSEC
  0
SECTION
  2
TABLES
  0
TABLE
  2
VPORT
  5
8
102
{ACAD_XDICTIONARY
360
11A
102
}
330
0
100
AcDbSymbolTable
 70
    16
  0
VPORT
  5
29
330
8
100
AcDbSymbolTableRecord
100
AcDbViewportTableRecord
  2
*Active
 70
     0
 10
0.0
 20
0.0
 11
1.0
 21
1.0
 12
184.800826
 22
150.825664
 13
0.0
 23
0.0
 14
0.5
 24
0.5
 15
0.5
 25
0.5
 16
0.0
 26
0.0
 36
1.0
 17
0.0
 27
0.0
 37
0.0
 40
254.0
 41
0.069908
 42
50.0
 43
464.379117
 44
-464.379117
 50
0.0
 51
0.0
 71
     0
 72
   100
 73
     1
 74
     3
 75
     0
 76
     0
 77
     0
 78
     0
281
     0
 65
     1
110
0.0
120
0.0
130
0.0
111
1.0
121
0.0
131
0.0
112
0.0
122
1.0
132
0.0
 79
     0
146
0.0
  0
VPORT
  5
10B
330
8
100
AcDbSymbolTableRecord
100
AcDbViewportTableRecord
  2
L1
 70
     0
 10
0.0
 20
0.0
 11
1.0
 21
1.0
 12
184.800826
 22
150.825664
 13
0.0
 23
0.0
 14
0.5
 24
0.5
 15
0.5
 25
0.5
 16
0.0
 26
0.0
 36
1.0
 17
0.0
 27
0.0
 37
0.0
 40
254.0
 41
0.069908
 42
50.0
 43
464.379117
 44
-464.379117
 50
0.0
 51
0.0
 71
     0
 72
   100
 73
     1
 74
     3
 75
     0
 76
     0
 77
     0
 78
     0
281
     0
 65
     1
110
0.0
120
0.0
130
0.0
111
1.0
121
0.0
131
0.0
112
0.0
122
1.0
132
0.0
 79
     0
146
0.0
  0
VPORT
  5
10C
330
8
100
AcDbSymbolTableRecord
100
AcDbViewportTableRecord
  2
L2
 70
     0
 10
0.0
 20
0.0
 11
0.5
 21
1.0
 12
0.0
 22
0.0
 13
0.0
 23
0.0
 14
0.5
 24
0.5
 15
0.5
 25
0.5
 16
0.0
 26
-1.0
 36
0.0
 17
0.0
 27
0.0
 37
0.0
 40
1500.38241
 41
0.011835
 42
50.0
 43
770.104354
 44
-770.104354
 50
0.0
 51
0.0
 71
     0
 72
   100
 73
     1
 74
     3
 75
     0
 76
     0
 77
     0
 78
     0
281
     0
 65
     1
110
0.0
120
0.0
130
0.0
111
1.0
121
0.0
131
0.0
112
0.0
122
1.0
132
0.0
 79
     0
146
0.0
  0
VPORT
  5
10D
330
8
100
AcDbSymbolTableRecord
100
AcDbViewportTableRecord
  2
L2
 70
     0
 10
0.5
 20
0.0
 11
1.0
 21
1.0
 12
0.0
 22
0.0
 13
0.0
 23
0.0
 14
0.5
 24
0.5
 15
0.5
 25
0.5
 16
1.0
 26
0.0
 36
0.0
 17
0.0
 27
0.0
 37
0.0
 40
1500.38241
 41
0.011835
 42
50.0
 43
760.865195
 44
-760.865195
 50
0.0
 51
0.0
 71
     0
 72
   100
 73
     1
 74
     3
 75
     0
 76
     0
 77
     0
 78
     0
281
     0
 65
     1
110
0.0
120
0.0
130
0.0
111
1.0
121
0.0
131
0.0
112
0.0
122
1.0
132
0.0
 79
     0
146
0.0
  0
VPORT
  5
10E
330
8
100
AcDbSymbolTableRecord
100
AcDbViewportTableRecord
  2
L3
 70
     0
 10
0.0
 20
0.5
 11
1.0
 21
1.0
 12
184.800826
 22
150.825664
 13
0.0
 23
0.0
 14
0.5
 24
0.5
 15
0.5
 25
0.5
 16
0.0
 26
0.0
 36
1.0
 17
0.0
 27
0.0
 37
0.0
 40
254.0
 41
0.069908
 42
50.0
 43
464.379117
 44
-464.379117
 50
0.0
 51
0.0
 71
     0
 72
   100
 73
     1
 74
     3
 75
     0
 76
     0
 77
     0
 78
     0
281
     0
 65
     1
110
0.0
120
0.0
130
0.0
111
1.0
121
0.0
131
0.0
112
0.0
122
1.0
132
0.0
 79
     0
146
0.0
  0
VPORT
  5
10F
330
8
100
AcDbSymbolTableRecord
100
AcDbViewportTableRecord
  2
L3
 70
     0
 10
0.0
 20
0.0
 11
1.0
 21
0.5
 12
0.0
 22
0.0
 13
0.0
 23
0.0
 14
0.5
 24
0.5
 15
0.5
 25
0.5
 16
0.0
 26
-1.0
 36
0.0
 17
0.0
 27
0.0
 37
0.0
 40
1500.38241
 41
0.011835
 42
50.0
 43
770.104354
 44
-770.104354
 50
0.0
 51
0.0
 71
     0
 72
   100
 73
     1
 74
     3
 75
     0
 76
     0
 77
     0
 78
     0
281
     0
 65
     1
110
0.0
120
0.0
130
0.0
111
1.0
121
0.0
131
0.0
112
0.0
122
1.0
132
0.0
 79
     0
146
0.0
  0
VPORT
  5
110
330
8
100
AcDbSymbolTableRecord
100
AcDbViewportTableRecord
  2
L4
 70
     0
 10
0.0
 20
0.5
 11
0.5
 21
1.0
 12
184.800826
 22
150.825664
 13
0.0
 23
0.0
 14
0.5
 24
0.5
 15
0.5
 25
0.5
 16
0.0
 26
0.0
 36
1.0
 17
0.0
 27
0.0
 37
0.0
 40
254.0
 41
0.069908
 42
50.0
 43
464.379117
 44
-464.379117
 50
0.0
 51
0.0
 71
     0
 72
   100
 73
     1
 74
     3
 75
     0
 76
     0
 77
     0
 78
     0
281
     0
 65
     1
110
0.0
120
0.0
130
0.0
111
1.0
121
0.0
131
0.0
112
0.0
122
1.0
132
0.0
 79
     0
146
0.0
  0
VPORT
  5
111
330
8
100
AcDbSymbolTableRecord
100
AcDbViewportTableRecord
  2
L4
 70
     0
 10
0.0
 20
0.0
 11
0.5
 21
0.5
 12
0.0
 22
0.0
 13
0.0
 23
0.0
 14
0.5
 24
0.5
 15
0.5
 25
0.5
 16
0.0
 26
-1.0
 36
0.0
 17
0.0
 27
0.0
 37
0.0
 40
1500.38241
 41
0.011835
 42
50.0
 43
770.104354
 44
-770.104354
 50
0.0
 51
0.0
 71
     0
 72
   100
 73
     1
 74
     3
 75
     0
 76
     0
 77
     0
 78
     0
281
     0
 65
     1
110
0.0
120
0.0
130
0.0
111
1.0
121
0.0
131
0.0
112
0.0
122
1.0
132
0.0
 79
     0
146
0.0
  0
VPORT
  5
112
330
8
100
AcDbSymbolTableRecord
100
AcDbViewportTableRecord
  2
L4
 70
     0
 10
0.5
 20
0.0
 11
1.0
 21
0.5
 12
0.0
 22
0.0
 13
0.0
 23
0.0
 14
0.5
 24
0.5
 15
0.5
 25
0.5
 16
1.0
 26
0.0
 36
0.0
 17
0.0
 27
0.0
 37
0.0
 40
1500.38241
 41
0.011835
 42
50.0
 43
760.865195
 44
-760.865195
 50
0.0
 51
0.0
 71
     0
 72
   100
 73
     1
 74
     3
 75
     0
 76
     0
 77
     0
 78
     0
281
     0
 65
     1
110
0.0
120
0.0
130
0.0
111
1.0
121
0.0
131
0.0
112
0.0
122
1.0
132
0.0
 79
     0
146
0.0
  0
VPORT
  5
113
330
8
100
AcDbSymbolTableRecord
100
AcDbViewportTableRecord
  2
L4
 70
     0
 10
0.5
 20
0.5
 11
1.0
 21
1.0
 12
0.0
 22
0.0
 13
0.0
 23
0.0
 14
0.5
 24
0.5
 15
0.5
 25
0.5
 16
0.5773502691896258
 26
-0.5773502691896258
 36
0.5773502691896258
 17
0.0
 27
0.0
 37
0.0
 40
1470.817585
 41
0.012073
 42
50.0
 43
765.587847
 44
-765.587847
 50
0.0
 51
0.0
 71
     0
 72
   100
 73
     1
 74
     3
 75
     0
 76
     0
 77
     0
 78
     0
281
     0
 65
     1
110
0.0
120
0.0
130
0.0
111
1.0
121
0.0
131
0.0
112
0.0
122
1.0
132
0.0
 79
     0
146
0.0
  0
VPORT
  5
114
330
8
100
AcDbSymbolTableRecord
100
AcDbViewportTableRecord
  2
L6
 70
     0
 10
0.0
 20
0.5
 11
0.333333
 21
1.0
 12
0.0
 22
0.0
 13
0.0
 23
0.0
 14
0.5
 24
0.5
 15
0.5
 25
0.5
 16
0.7188730927569433
 26
-0.5850486126764433
 36
0.3754192287502549
 17
0.0
 27
0.0
 37
0.0
 40
1552.153934
 41
0.01144
 42
50.0
 43
803.552652
 44
-803.552652
 50
0.0
 51
0.0
 71
     0
 72
   100
 73
     1
 74
     3
 75
     0
 76
     0
 77
     0
 78
     0
281
     0
 65
     1
110
0.0
120
0.0
130
0.0
111
1.0
121
0.0
131
0.0
112
0.0
122
1.0
132
0.0
 79
     0
146
0.0
  0
VPORT
  5
115
330
8
100
AcDbSymbolTableRecord
100
AcDbViewportTableRecord
  2
L6
 70
     0
 10
0.0
 20
0.0
 11
0.333333
 21
0.5
 12
0.0
 22
0.0
 13
0.0
 23
0.0
 14
0.5
 24
0.5
 15
0.5
 25
0.5
 16
-1.0
 26
0.0
 36
0.0
 17
0.0
 27
0.0
 37
0.0
 40
1500.38241
 41
0.011835
 42
50.0
 43
760.865195
 44
-760.865195
 50
0.0
 51
0.0
 71
     0
 72
   100
 73
     1
 74
     3
 75
     0
 76
     0
 77
     0
 78
     0
281
     0
 65
     1
110
0.0
120
0.0
130
0.0
111
1.0
121
0.0
131
0.0
112
0.0
122
1.0
132
0.0
 79
     0
146
0.0
  0
VPORT
  5
116
330
8
100
AcDbSymbolTableRecord
100
AcDbViewportTableRecord
  2
L6
 70
     0
 10
0.333333
 20
0.5
 11
0.666667
 21
1.0
 12
184.800826
 22
150.825664
 13
0.0
 23
0.0
 14
0.5
 24
0.5
 15
0.5
 25
0.5
 16
0.0
 26
0.0
 36
1.0
 17
0.0
 27
0.0
 37
0.0
 40
254.0
 41
0.069908
 42
50.0
 43
464.379117
 44
-464.379117
 50
0.0
 51
0.0
 71
     0
 72
   100
 73
     1
 74
     3
 75
     0
 76
     0
 77
     0
 78
     0
281
     0
 65
     1
110
0.0
120
0.0
130
0.0
111
1.0
121
0.0
131
0.0
112
0.0
122
1.0
132
0.0
 79
     0
146
0.0
  0
VPORT
  5
117
330
8
100
AcDbSymbolTableRecord
100
AcDbViewportTableRecord
  2
L6
 70
     0
 10
0.333333
 20
0.0
 11
0.666667
 21
0.5
 12
0.0
 22
0.0
 13
0.0
 23
0.0
 14
0.5
 24
0.5
 15
0.5
 25
0.5
 16
0.0
 26
-1.0
 36
0.0
 17
0.0
 27
0.0
 37
0.0
 40
1500.38241
 41
0.011835
 42
50.0
 43
770.104354
 44
-770.104354
 50
0.0
 51
0.0
 71
     0
 72
   100
 73
     1
 74
     3
 75
     0
 76
     0
 77
     0
 78
     0
281
     0
 65
     1
110
0.0
120
0.0
130
0.0
111
1.0
121
0.0
131
0.0
112
0.0
122
1.0
132
0.0
 79
     0
146
0.0
  0
VPORT
  5
118
330
8
100
AcDbSymbolTableRecord
100
AcDbViewportTableRecord
  2
L6
 70
     0
 10
0.666667
 20
0.5
 11
1.0
 21
1.0
 12
0.0
 22
0.0
 13
0.0
 23
0.0
 14
0.5
 24
0.5
 15
0.5
 25
0.5
 16
0.5773502691896258
 26
-0.5773502691896258
 36
0.5773502691896258
 17
0.0
 27
0.0
 37
0.0
 40
1470.817585
 41
0.012073
 42
50.0
 43
765.587847
 44
-765.587847
 50
0.0
 51
0.0
 71
     0
 72
   100
 73
     1
 74
     3
 75
     0
 76
     0
 77
     0
 78
     0
281
     0
 65
     1
110
0.0
120
0.0
130
0.0
111
1.0
121
0.0
131
0.0
112
0.0
122
1.0
132
0.0
 79
     0
146
0.0
  0
VPORT
  5
119
330
8
100
AcDbSymbolTableRecord
100
AcDbViewportTableRecord
  2
L6
 70
     0
 10
0.666667
 20
0.0
 11
1.0
 21
0.5
 12
0.0
 22
0.0
 13
0.0
 23
0.0
 14
0.5
 24
0.5
 15
0.5
 25
0.5
 16
1.0
 26
0.0
 36
0.0
 17
0.0
 27
0.0
 37
0.0
 40
1500.38241
 41
0.011835
 42
50.0
 43
760.865195
 44
-760.865195
 50
0.0
 51
0.0
 71
     0
 72
   100
 73
     1
 74
     3
 75
     0
 76
     0
 77
     0
 78
     0
281
     0
 65
     1
110
0.0
120
0.0
130
0.0
111
1.0
121
0.0
131
0.0
112
0.0
122
1.0
132
0.0
 79
     0
146
0.0
  0
ENDTAB
  0
TABLE
  2
LTYPE
  5
5
330
0
100
AcDbSymbolTable
 70
     6
  0
LTYPE
  5
14
330
5
100
AcDbSymbolTableRecord
100
AcDbLinetypeTableRecord
  2
ByBlock
 70
     0
  3

 72
    65
 73
     0
 40
0.0
  0
LTYPE
  5
15
330
5
100
AcDbSymbolTableRecord
100
AcDbLinetypeTableRecord
  2
ByLayer
 70
     0
  3

 72
    65
 73
     0
 40
0.0
  0
LTYPE
  5
16
330
5
100
AcDbSymbolTableRecord
100
AcDbLinetypeTableRecord
  2
Continuous
 70
     0
  3
Solid line
 72
    65
 73
     0
 40
0.0
  0
LTYPE
  5
6E
330
5
100
AcDbSymbolTableRecord
100
AcDbLinetypeTableRecord
  2
CENTER
 70
     0
  3
____ _ ____ _ ____ _ ____
 72
    65
 73
     4
 40
47.4
 49
22.0
 74
     4
 75
     0
340
0
 46
0.0
 50
0.0
 44
0.0
 45
0.0
 49
-8.5
 74
     4
 75
     0
340
0
 46
0.0
 50
0.0
 44
0.0
 45
0.0
 49
8.5
 74
     4
 75
     0
340
0
 46
0.0
 50
0.0
 44
0.0
 45
0.0
 49
-8.5
 74
     4
 75
     0
340
0
 46
0.0
 50
0.0
 44
0.0
 45
0.0
  0
LTYPE
  5
6F
330
5
100
AcDbSymbolTableRecord
100
AcDbLinetypeTableRecord
  2
DASHDOT
 70
     0
  3
_._._._._._._._._._._._._._._._.
 72
    65
 73
     4
 40
70.0
 49
31.0
 74
     4
 75
     0
340
0
 46
0.0
 50
0.0
 44
0.0
 45
0.0
 49
-13.0
 74
     4
 75
     0
340
0
 46
0.0
 50
0.0
 44
0.0
 45
0.0
 49
13.0
 74
     4
 75
     0
340
0
 46
0.0
 50
0.0
 44
0.0
 45
0.0
 49
-13.0
 74
     4
 75
     0
340
0
 46
0.0
 50
0.0
 44
0.0
 45
0.0
  0
LTYPE
  5
70
330
5
100
AcDbSymbolTableRecord
100
AcDbLinetypeTableRecord
  2
DASHED
 70
     0
  3
__ __ __ __ __ __ __ __ __
 72
    65
 73
     2
 40
25.72
 49
12.86
 74
     4
 75
     0
340
0
 46
0.0
 50
0.0
 44
0.0
 45
0.0
 49
-12.86
 74
     4
 75
     0
340
0
 46
0.0
 50
0.0
 44
0.0
 45
0.0
  0
LTYPE
  5
71
330
5
100
AcDbSymbolTableRecord
100
AcDbLinetypeTableRecord
  2
DOT
 70
     0
  3
.........................
 72
    65
 73
     2
 40
10.0
 49
0.0
 74
     4
 75
     0
340
0
 46
0.0
 50
0.0
 44
0.0
 45
0.0
 49
-10.0
 74
     4
 75
     0
340
0
 46
0.0
 50
0.0
 44
0.0
 45
0.0
  0
LTYPE
  5
72
330
5
100
AcDbSymbolTableRecord
100
AcDbLinetypeTableRecord
  2
PHANTOM
 70
     0
  3
____ _ _ ____ _ _ _____ _ _ ____
 72
    65
 73
     6
 40
50.5
 49
18.0
 74
     4
 75
     0
340
0
 46
0.0
 50
0.0
 44
0.0
 45
0.0
 49
-6.5
 74
     4
 75
     0
340
0
 46
0.0
 50
0.0
 44
0.0
 45
0.0
 49
6.5
 74
     4
 75
     0
340
0
 46
0.0
 50
0.0
 44
0.0
 45
0.0
 49
-6.5
 74
     4
 75
     0
340
0
 46
0.0
 50
0.0
 44
0.0
 45
0.0
 49
6.5
 74
     4
 75
     0
340
0
 46
0.0
 50
0.0
 44
0.0
 45
0.0
 49
-6.5
 74
     4
 75
     0
340
0
 46
0.0
 50
0.0
 44
0.0
 45
0.0
  0
ENDTAB
  0
TABLE
  2
LAYER
  5
2
330
0
100
AcDbSymbolTable
 70
     2
  0
LAYER
  5
10
330
2
100
AcDbSymbolTableRecord
100
AcDbLayerTableRecord
  2
0
 70
     0
 62
     7
  6
Continuous
370
    -3
390
F
  0
LAYER
  5
74
330
2
100
AcDbSymbolTableRecord
100
AcDbLayerTableRecord
  2
1
 70
     0
 62
     7
420
 16777215
  6
Continuous
370
    -3
390
F
  0
ENDTAB
  0
TABLE
  2
STYLE
  5
3
330
0
100
AcDbSymbolTable
 70
     1
  0
STYLE
  5
11
330
3
100
AcDbSymbolTableRecord
100
AcDbTextStyleTableRecord
  2
Standard
 70
     0
 40
0.0
 41
1.0
 50
0.0
 71
     0
 42
0.2
  3
txt
  4

  0
ENDTAB
  0
TABLE
  2
VIEW
  5
6
330
0
100
AcDbSymbolTable
 70
     0
  0
ENDTAB
  0
TABLE
  2
UCS
  5
7
330
0
100
AcDbSymbolTable
 70
     0
  0
ENDTAB
  0
TABLE
  2
APPID
  5
9
330
0
100
AcDbSymbolTable
 70
     2
  0
APPID
  5
12
330
9
100
AcDbSymbolTableRecord
100
AcDbRegAppTableRecord
  2
ACAD
 70
     0
  0
APPID
  5
159
330
9
100
AcDbSymbolTableRecord
100
AcDbRegAppTableRecord
  2
ACAD_MLEADERVER
 70
     0
  0
ENDTAB
  0
TABLE
  2
DIMSTYLE
  5
A
330
0
100
AcDbSymbolTable
 70
     1
100
AcDbDimStyleTable
  0
DIMSTYLE
105
27
330
A
100
AcDbSymbolTableRecord
100
AcDbDimStyleTableRecord
  2
Standard
 70
     0
178
     0
340
11
  0
ENDTAB
  0
TABLE
  2
BLOCK_RECORD
  5
1
330
0
100
AcDbSymbolTable
 70
     1
  0
BLOCK_RECORD
  5
1F
330
1
100
AcDbSymbolTableRecord
100
AcDbBlockTableRecord
  2
*Model_Space
340
22
  0
BLOCK_RECORD
  5
1B
330
1
100
AcDbSymbolTableRecord
100
AcDbBlockTableRecord
  2
*Paper_Space
340
1E
  0
BLOCK_RECORD
  5
23
330
1
100
AcDbSymbolTableRecord
100
AcDbBlockTableRecord
  2
*Paper_Space0
340
26
  0
ENDTAB
  0
ENDSEC
  0
SECTION
  2
BLOCKS
  0
BLOCK
  5
20
330
1F
100
AcDbEntity
  8
0
100
AcDbBlockBegin
  2
*Model_Space
 70
     0
 10
0.0
 20
0.0
 30
0.0
  3
*Model_Space
  1

  0
ENDBLK
  5
21
330
1F
100
AcDbEntity
  8
0
100
AcDbBlockEnd
  0
BLOCK
  5
1C
330
1B
100
AcDbEntity
 67
     1
  8
0
100
AcDbBlockBegin
  2
*Paper_Space
 70
     0
 10
0.0
 20
0.0
 30
0.0
  3
*Paper_Space
  1

  0
ENDBLK
  5
1D
330
1B
100
AcDbEntity
 67
     1
  8
0
100
AcDbBlockEnd
  0
BLOCK
  5
24
330
23
100
AcDbEntity
  8
0
100
AcDbBlockBegin
  2
*Paper_Space0
 70
     0
 10
0.0
 20
0.0
 30
0.0
  3
*Paper_Space0
  1

  0
ENDBLK
  5
25
330
23
100
AcDbEntity
  8
0
100
AcDbBlockEnd
  0
ENDSEC
  0
SECTION
  2
ENTITIES
  0
LINE
  5
73
330
1F
100
AcDbEntity
  8
1
  6
Continuous
 62
     1
370
    18
100
AcDbLine
 10
116.915441
 20
201.204755
 30
0.0
 11
110.334678
 21
201.204755
 31
0.0
  0
LINE
  5
75
330
1F
100
AcDbEntity
  8
1
  6
Continuous
 62
     1
370
    18
100
AcDbLine
 10
105.176937
 20
201.204755
 30
0.0
 11
110.334678
 21
201.204755
 31
0.0
  0
LINE
  5
76
330
1F
100
AcDbEntity
  8
1
  6
Continuous
 62
     1
370
    18
100
AcDbLine
 10
130.019196
 20
201.204755
 30
0.0
 11
135.176937
 21
201.204755
 31
0.0
  0
LINE
  5
77
330
1F
100
AcDbEntity
  8
1
  6
Continuous
 62
     1
370
    18
100
AcDbLine
 10
130.019196
 20
201.204755
 30
0.0
 11
123.438433
 21
201.204755
 31
0.0
  0
LINE
  5
78
330
1F
100
AcDbEntity
  8
1
  6
Continuous
 62
     1
370
    18
100
AcDbLine
 10
123.438433
 20
201.204755
 30
0.0
 11
116.915441
 21
201.204755
 31
0.0
  0
LINE
  5
79
330
1F
100
AcDbEntity
  8
1
  6
Continuous
 62
     1
370
    13
100
AcDbLine
 10
133.176937
 20
204.367032
 30
0.0
 11
128.706895
 21
204.367032
 31
0.0
  0
LINE
  5
7A
330
1F
100
AcDbEntity
  8
1
  6
Continuous
 62
     1
370
    13
100
AcDbLine
 10
111.646979
 20
204.367032
 30
0.0
 11
107.176937
 21
204.367032
 31
0.0
  0
LINE
  5
7B
330
1F
100
AcDbEntity
  8
1
  6
Continuous
 62
     1
370
    18
100
AcDbLine
 10
107.176937
 20
205.138804
 30
0.0
 11
107.176937
 21
204.367032
 31
0.0
  0
LINE
  5
7C
330
1F
100
AcDbEntity
  8
1
  6
Continuous
 62
     1
370
    18
100
AcDbLine
 10
133.176937
 20
204.367032
 30
0.0
 11
133.176937
 21
205.037423
 31
0.0
  0
LINE
  5
7D
330
1F
100
AcDbEntity
  8
1
  6
Continuous
 62
     1
370
    18
100
AcDbLine
 10
135.176937
 20
190.004755
 30
0.0
 11
135.176937
 21
201.204755
 31
0.0
  0
LINE
  5
7E
330
1F
100
AcDbEntity
  8
1
  6
Continuous
 62
     1
370
    18
100
AcDbLine
 10
127.176937
 20
151.404755
 30
0.0
 11
127.176937
 21
190.004755
 31
0.0
  0
LINE
  5
7F
330
1F
100
AcDbEntity
  8
1
  6
Continuous
 62
     1
370
    18
100
AcDbLine
 10
113.176937
 20
190.004755
 30
0.0
 11
113.176937
 21
151.404755
 31
0.0
  0
LINE
  5
80
330
1F
100
AcDbEntity
  8
1
  6
Continuous
 62
     1
370
    18
100
AcDbLine
 10
125.776937
 20
150.004755
 30
0.0
 11
127.176937
 21
151.404755
 31
0.0
  0
LINE
  5
81
330
1F
100
AcDbEntity
  8
1
  6
Continuous
 62
     1
370
    18
100
AcDbLine
 10
113.176937
 20
151.404755
 30
0.0
 11
114.576937
 21
150.004755
 31
0.0
  0
LINE
  5
82
330
1F
100
AcDbEntity
  8
1
  6
Continuous
 62
     1
370
    18
100
AcDbLine
 10
105.176937
 20
190.004755
 30
0.0
 11
135.176937
 21
190.004755
 31
0.0
  0
LINE
  5
83
330
1F
100
AcDbEntity
  8
1
  6
Continuous
 62
     1
370
    18
100
AcDbLine
 10
113.176937
 20
151.404755
 30
0.0
 11
127.176937
 21
151.404755
 31
0.0
  0
LINE
  5
84
330
1F
100
AcDbEntity
  8
1
  6
Continuous
 62
     1
370
    18
100
AcDbLine
 10
105.176937
 20
201.204755
 30
0.0
 11
105.176937
 21
190.004755
 31
0.0
  0
LINE
  5
85
330
1F
100
AcDbEntity
  8
1
  6
Continuous
 62
     1
370
    18
100
AcDbLine
 10
114.576937
 20
150.004755
 30
0.0
 11
125.776937
 21
150.004755
 31
0.0
  0
LINE
  5
86
330
1F
100
AcDbEntity
  8
1
  6
Continuous
 62
     1
370
    18
100
AcDbLine
 10
277.557544
 20
201.204755
 30
0.0
 11
274.235865
 21
201.204755
 31
0.0
  0
LINE
  5
87
330
1F
100
AcDbEntity
  8
1
  6
Continuous
 62
     1
370
    18
100
AcDbLine
 10
274.235865
 20
201.204755
 30
0.0
 11
251.596966
 21
201.204755
 31
0.0
  0
LINE
  5
88
330
1F
100
AcDbEntity
  8
1
  6
Continuous
 62
     1
370
    18
100
AcDbLine
 10
248.275287
 20
201.204755
 30
0.0
 11
251.596966
 21
201.204755
 31
0.0
  0
LINE
  5
89
330
1F
100
AcDbEntity
  8
1
  6
Continuous
 62
     1
370
    18
100
AcDbLine
 10
248.275287
 20
201.204755
 30
0.0
 11
247.916415
 21
201.204755
 31
0.0
  0
LINE
  5
8A
330
1F
100
AcDbEntity
  8
1
  6
Continuous
 62
     1
370
    18
100
AcDbLine
 10
277.557544
 20
201.204755
 30
0.0
 11
277.916415
 21
201.204755
 31
0.0
  0
LINE
  5
8B
330
1F
100
AcDbEntity
  8
1
  6
Continuous
 62
     1
370
    18
100
AcDbLine
 10
257.316415
 20
150.004755
 30
0.0
 11
262.916415
 21
150.004755
 31
0.0
  0
LINE
  5
8C
330
1F
100
AcDbEntity
  8
1
  6
Continuous
 62
     1
370
    18
100
AcDbLine
 10
262.916415
 20
150.004755
 30
0.0
 11
268.516415
 21
150.004755
 31
0.0
  0
LINE
  5
8D
330
1F
100
AcDbEntity
  8
1
  6
Continuous
 62
     1
370
    18
100
AcDbLine
 10
269.916415
 20
151.404755
 30
0.0
 11
262.916415
 21
151.404755
 31
0.0
  0
LINE
  5
8E
330
1F
100
AcDbEntity
  8
1
  6
Continuous
 62
     1
370
    18
100
AcDbLine
 10
262.916415
 20
151.404755
 30
0.0
 11
255.916415
 21
151.404755
 31
0.0
  0
LINE
  5
8F
330
1F
100
AcDbEntity
  8
1
  6
Continuous
 62
     1
370
    13
100
AcDbLine
 10
256.399747
 20
208.505046
 30
0.0
 11
253.106226
 21
204.367032
 31
0.0
  0
LINE
  5
90
330
1F
100
AcDbEntity
  8
1
  6
Continuous
 62
     1
370
    13
100
AcDbLine
 10
272.726605
 20
204.367032
 30
0.0
 11
269.433083
 21
208.505046
 31
0.0
  0
LINE
  5
91
330
1F
100
AcDbEntity
  8
1
  6
Continuous
 62
     1
370
    18
100
AcDbLine
 10
270.40295
 20
210.210082
 30
0.0
 11
274.902475
 21
202.860858
 31
0.0
  0
LINE
  5
92
330
1F
100
AcDbEntity
  8
1
  6
Continuous
 62
     1
370
    13
100
AcDbLine
 10
253.106226
 20
204.367032
 30
0.0
 11
272.726605
 21
204.367032
 31
0.0
  0
LINE
  5
93
330
1F
100
AcDbEntity
  8
1
  6
Continuous
 62
     1
370
    18
100
AcDbLine
 10
277.916415
 20
190.004755
 30
0.0
 11
262.916415
 21
190.004755
 31
0.0
  0
LINE
  5
94
330
1F
100
AcDbEntity
  8
1
  6
Continuous
 62
     1
370
    18
100
AcDbLine
 10
262.916415
 20
190.004755
 30
0.0
 11
247.916415
 21
190.004755
 31
0.0
  0
LINE
  5
95
330
1F
100
AcDbEntity
  8
1
  6
Continuous
 62
     1
370
    18
100
AcDbLine
 10
269.916363
 20
211.978312
 30
0.0
 11
269.916412
 21
211.988028
 31
0.0
  0
LINE
  5
96
330
1F
100
AcDbEntity
  8
1
  6
Continuous
 62
     1
370
    18
100
AcDbLine
 10
255.916422
 20
211.986352
 30
0.0
 11
255.916454
 21
211.980073
 31
0.0
  0
LINE
  5
97
330
1F
100
AcDbEntity
  8
1
  6
Continuous
 62
     1
370
    18
100
AcDbLine
 10
269.916415
 20
211.976251
 30
0.0
 11
269.916415
 21
254.004755
 31
0.0
  0
LINE
  5
98
330
1F
100
AcDbEntity
  8
1
  6
Continuous
 62
     1
370
    18
100
AcDbLine
 10
277.916415
 20
190.004755
 30
0.0
 11
277.916415
 21
201.204755
 31
0.0
  0
LINE
  5
99
330
1F
100
AcDbEntity
  8
1
  6
Continuous
 62
     1
370
    18
100
AcDbLine
 10
247.916415
 20
201.204755
 30
0.0
 11
247.916415
 21
190.004755
 31
0.0
  0
LINE
  5
9A
330
1F
100
AcDbEntity
  8
1
  6
Continuous
 62
     1
370
    18
100
AcDbLine
 10
269.916415
 20
151.404755
 30
0.0
 11
269.916415
 21
190.004755
 31
0.0
  0
LINE
  5
9B
330
1F
100
AcDbEntity
  8
1
  6
Continuous
 62
     1
370
    18
100
AcDbLine
 10
255.916415
 20
190.004755
 30
0.0
 11
255.916415
 21
151.404755
 31
0.0
  0
LINE
  5
9C
330
1F
100
AcDbEntity
  8
1
  6
Continuous
 62
     1
370
    18
100
AcDbLine
 10
268.516415
 20
150.004755
 30
0.0
 11
269.916415
 21
151.404755
 31
0.0
  0
LINE
  5
9D
330
1F
100
AcDbEntity
  8
1
  6
Continuous
 62
     1
370
    18
100
AcDbLine
 10
255.916415
 20
151.404755
 30
0.0
 11
257.316415
 21
150.004755
 31
0.0
  0
LINE
  5
9E
330
1F
100
AcDbEntity
  8
1
  6
Continuous
 62
     1
370
    18
100
AcDbLine
 10
255.916415
 20
254.004755
 30
0.0
 11
255.916415
 21
211.956568
 31
0.0
  0
LINE
  5
9F
330
1F
100
AcDbEntity
  8
1
  6
Continuous
 62
     1
370
    18
100
AcDbLine
 10
250.930356
 20
202.860858
 30
0.0
 11
255.429881
 21
210.210082
 31
0.0
  0
LINE
  5
A0
330
1F
100
AcDbEntity
  8
1
  6
Continuous
 62
     1
370
    13
100
AcDbLine
 10
111.646979
 20
61.456757
 30
0.0
 11
110.334678
 21
62.966017
 31
0.0
  0
LINE
  5
A1
330
1F
100
AcDbEntity
  8
1
  6
Continuous
 62
     1
370
    13
100
AcDbLine
 10
128.706895
 20
41.836378
 30
0.0
 11
130.019196
 21
40.327118
 31
0.0
  0
LINE
  5
A2
330
1F
100
AcDbEntity
  8
1
  6
Continuous
 62
     1
370
    13
100
AcDbLine
 10
128.706895
 20
61.456757
 30
0.0
 11
130.019196
 21
62.966017
 31
0.0
  0
LINE
  5
A3
330
1F
100
AcDbEntity
  8
1
  6
Continuous
 62
     1
370
    13
100
AcDbLine
 10
111.646979
 20
41.836378
 30
0.0
 11
110.334678
 21
40.327118
 31
0.0
  0
LINE
  5
A4
330
1F
100
AcDbEntity
  8
1
  6
Continuous
 62
     1
370
    18
100
AcDbLine
 10
141.760666
 20
58.646568
 30
0.0
 11
98.760666
 21
58.646568
 31
0.0
  0
LINE
  5
A5
330
1F
100
AcDbEntity
  8
1
  6
Continuous
 62
     1
370
    18
100
AcDbLine
 10
98.760666
 20
44.646568
 30
0.0
 11
141.760666
 21
44.646568
 31
0.0
  0
ARC
  5
A6
330
1F
100
AcDbEntity
  8
1
  6
Continuous
 62
     1
370
    18
100
AcDbCircle
 10
120.260666
 20
232.504755
 30
0.0
 40
28.49999999999999
100
AcDbArc
 50
300.854974
 51
0.0
  0
ARC
  5
A7
330
1F
100
AcDbEntity
  8
1
  6
Continuous
 62
     1
370
    18
100
AcDbCircle
 10
136.676937
 20
204.367032
 30
0.0
 40
3.5
100
AcDbArc
 50
180.0
 51
244.623066
  0
ARC
  5
A8
330
1F
100
AcDbEntity
  8
1
  6
Continuous
 62
     1
370
    18
100
AcDbCircle
 10
103.676937
 20
204.367032
 30
0.0
 40
3.5
100
AcDbArc
 50
295.376934
 51
0.0
  0
CIRCLE
  5
A9
330
1F
100
AcDbEntity
  8
1
  6
Continuous
 62
     1
370
    18
100
AcDbCircle
 10
120.260666
 20
232.504755
 30
0.0
 40
14.49999999999999
  0
ARC
  5
AA
330
1F
100
AcDbEntity
  8
1
  6
Continuous
 62
     1
370
    18
100
AcDbCircle
 10
120.260666
 20
232.504755
 30
0.0
 40
28.49999999999999
100
AcDbArc
 50
0.0
 51
238.793
  0
ARC
  5
AB
330
1F
100
AcDbEntity
  8
1
  6
Continuous
 62
     1
370
    18
100
AcDbCircle
 10
262.916415
 20
254.004755
 30
0.0
 40
7.0
100
AcDbArc
 50
0.0
 51
180.0
  0
ARC
  5
AC
330
1F
100
AcDbEntity
  8
1
  6
Continuous
 62
     1
370
    18
100
AcDbCircle
 10
120.176937
 20
51.646568
 30
0.0
 40
15.0
100
AcDbArc
 50
257.441692
 51
282.558308
  0
ARC
  5
AD
330
1F
100
AcDbEntity
  8
1
  6
Continuous
 62
     1
370
    18
100
AcDbCircle
 10
120.176937
 20
51.646568
 30
0.0
 40
15.0
100
AcDbArc
 50
77.441692
 51
102.558308
  0
ARC
  5
AE
330
1F
100
AcDbEntity
  8
1
  6
Continuous
 62
     1
370
    18
100
AcDbCircle
 10
120.176937
 20
51.646568
 30
0.0
 40
15.0
100
AcDbArc
 50
207.817333
 51
228.993047
  0
ARC
  5
AF
330
1F
100
AcDbEntity
  8
1
  6
Continuous
 62
     1
370
    18
100
AcDbCircle
 10
120.176937
 20
51.646568
 30
0.0
 40
15.0
100
AcDbArc
 50
131.006953
 51
152.182667
  0
ARC
  5
B0
330
1F
100
AcDbEntity
  8
1
  6
Continuous
 62
     1
370
    18
100
AcDbCircle
 10
120.176937
 20
51.646568
 30
0.0
 40
15.0
100
AcDbArc
 50
311.006953
 51
332.182667
  0
ARC
  5
B1
330
1F
100
AcDbEntity
  8
1
  6
Continuous
 62
     1
370
    18
100
AcDbCircle
 10
120.176937
 20
51.646568
 30
0.0
 40
15.0
100
AcDbArc
 50
27.817333
 51
48.993047
  0
ARC
  5
B2
330
1F
100
AcDbEntity
  8
1
  6
Continuous
 62
     1
370
    18
100
AcDbCircle
 10
120.176937
 20
51.646568
 30
0.0
 40
15.0
100
AcDbArc
 50
102.558308
 51
131.006953
  0
ARC
  5
B3
330
1F
100
AcDbEntity
  8
1
  6
Continuous
 62
     1
370
    18
100
AcDbCircle
 10
120.176937
 20
51.646568
 30
0.0
 40
15.0
100
AcDbArc
 50
282.558308
 51
311.006953
  0
ARC
  5
B4
330
1F
100
AcDbEntity
  8
1
  6
Continuous
 62
     1
370
    18
100
AcDbCircle
 10
120.176937
 20
51.646568
 30
0.0
 40
15.0
100
AcDbArc
 50
48.993047
 51
77.441692
  0
ARC
  5
B5
330
1F
100
AcDbEntity
  8
1
  6
Continuous
 62
     1
370
    18
100
AcDbCircle
 10
120.176937
 20
51.646568
 30
0.0
 40
15.0
100
AcDbArc
 50
228.993047
 51
257.441692
  0
ARC
  5
B6
330
1F
100
AcDbEntity
  8
1
  6
Continuous
 62
     1
370
    18
100
AcDbCircle
 10
120.176937
 20
51.646568
 30
0.0
 40
12.99999999999953
100
AcDbArc
 50
32.579001
 51
48.993047
  0
ARC
  5
B7
330
1F
100
AcDbEntity
  8
1
  6
Continuous
 62
     1
370
    18
100
AcDbCircle
 10
120.176937
 20
51.646568
 30
0.0
 40
12.99999999999149
100
AcDbArc
 50
212.57897
 51
228.993047
  0
ARC
  5
B8
330
1F
100
AcDbEntity
  8
1
  6
Continuous
 62
     1
370
    13
100
AcDbCircle
 10
120.176937
 20
54.205122
 30
0.0
 40
10.00000000000005
100
AcDbArc
 50
29.552702
 51
70.518728
  0
ARC
  5
B9
330
1F
100
AcDbEntity
  8
1
  6
Continuous
 62
     1
370
    13
100
AcDbCircle
 10
120.176937
 20
49.088014
 30
0.0
 40
9.999999999998789
100
AcDbArc
 50
209.524655
 51
250.518728
  0
ARC
  5
BA
330
1F
100
AcDbEntity
  8
1
  6
Continuous
 62
     1
370
    13
100
AcDbCircle
 10
120.176937
 20
54.205122
 30
0.0
 40
9.999999999999956
100
AcDbArc
 50
109.481272
 51
150.475345
  0
ARC
  5
BB
330
1F
100
AcDbEntity
  8
1
  6
Continuous
 62
     1
370
    18
100
AcDbCircle
 10
120.176937
 20
51.646568
 30
0.0
 40
13.00000000001374
100
AcDbArc
 50
131.006953
 51
147.42103
  0
ARC
  5
BC
330
1F
100
AcDbEntity
  8
1
  6
Continuous
 62
     1
370
    13
100
AcDbCircle
 10
120.176937
 20
49.088014
 30
0.0
 40
9.999999999999783
100
AcDbArc
 50
289.481272
 51
330.447298
  0
ARC
  5
BD
330
1F
100
AcDbEntity
  8
1
  6
Continuous
 62
     1
370
    18
100
AcDbCircle
 10
120.176937
 20
51.646568
 30
0.0
 40
12.99999999996577
100
AcDbArc
 50
311.006953
 51
327.420999
  0
ARC
  5
BE
330
1F
100
AcDbEntity
  8
1
  6
Continuous
 62
     1
370
    18
100
AcDbCircle
 10
141.760666
 20
51.646568
 30
0.0
 40
7.0
100
AcDbArc
 50
270.0
 51
90.0
  0
ARC
  5
BF
330
1F
100
AcDbEntity
  8
1
  6
Continuous
 62
     1
370
    18
100
AcDbCircle
 10
98.760666
 20
51.646568
 30
0.0
 40
7.0
100
AcDbArc
 50
90.0
 51
270.0
  0
ELLIPSE
  5
C0
330
1F
100
AcDbEntity
  8
1
  6
Continuous
 62
     1
370
    13
100
AcDbEllipse
 10
131.003422
 20
204.367032
 30
0.0
 11
0.0
 21
3.5
 31
0.0
210
0.0
220
0.0
230
1.0
 40
0.656151
 41
1.570796326794897
 42
2.698681609516153
  0
ELLIPSE
  5
C1
330
1F
100
AcDbEntity
  8
1
  6
Continuous
 62
     1
370
    13
100
AcDbEllipse
 10
123.511924
 20
204.688396
 30
0.0
 11
0.07836179706230235
 21
3.499122665577926
 31
0.0
210
0.0
220
0.0
230
1.0
 40
0.013706
 41
3.23600179863537
 42
4.163167957982547
  0
ELLIPSE
  5
C2
330
1F
100
AcDbEntity
  8
1
  6
Continuous
 62
     1
370
    13
100
AcDbEllipse
 10
116.84195
 20
204.688396
 30
0.0
 11
-0.07836179706230235
 21
3.499122665577926
 31
0.0
210
0.0
220
0.0
230
1.0
 40
0.013706
 41
2.120017349197039
 42
3.047183508544221
  0
ELLIPSE
  5
C3
330
1F
100
AcDbEntity
  8
1
  6
Continuous
 62
     1
370
    13
100
AcDbEllipse
 10
109.350452
 20
204.367032
 30
0.0
 11
0.0
 21
3.5
 31
0.0
210
0.0
220
0.0
230
1.0
 40
0.656151
 41
3.58450369766343
 42
4.71238898038469
  0
ELLIPSE
  5
C4
330
1F
100
AcDbEntity
  8
1
  6
Continuous
 62
     1
370
    13
100
AcDbEllipse
 10
105.899753
 20
208.505046
 30
0.0
 11
-3.12219143894812
 21
1.581746066395953
 31
0.0
210
0.0
220
0.0
230
1.0
 40
0.615076
 41
3.830595197356834
 42
4.66910379084238
  0
ELLIPSE
  5
C5
330
1F
100
AcDbEntity
  8
1
  6
Continuous
 62
     1
370
    13
100
AcDbEllipse
 10
111.4755
 20
212.03762
 30
0.0
 11
-0.1496961661575091
 21
-3.496797257182313
 31
0.0
210
0.0
220
0.0
230
1.0
 40
0.026177
 41
1.021981992558043
 42
1.639673595032446
  0
ELLIPSE
  5
C6
330
1F
100
AcDbEntity
  8
1
  6
Continuous
 62
     1
370
    13
100
AcDbEllipse
 10
128.875961
 20
212.030664
 30
0.0
 11
0.1367552992794993
 21
-3.497327263514094
 31
0.0
210
0.0
220
0.0
230
1.0
 40
0.023915
 41
4.648786956262498
 42
5.261295997955632
  0
ELLIPSE
  5
C7
330
1F
100
AcDbEntity
  8
1
  6
Continuous
 62
     1
370
    13
100
AcDbEllipse
 10
134.427139
 20
208.459115
 30
0.0
 11
-3.127892517056247
 21
-1.57044210391327
 31
0.0
210
0.0
220
0.0
230
1.0
 40
0.609466
 41
4.753319867967878
 42
5.594101054656209
  0
ELLIPSE
  5
C8
330
1F
100
AcDbEntity
  8
1
  6
Continuous
 62
     1
370
    13
100
AcDbEllipse
 10
120.176937
 20
218.259117
 30
0.0
 11
1.913377095484725E-14
 21
16.33333333333279
 31
0.0
210
0.0
220
0.0
230
1.0
 40
0.612245
 41
3.481605000482206
 42
4.196597031068297
  0
ELLIPSE
  5
C9
330
1F
100
AcDbEntity
  8
1
  6
Continuous
 62
     1
370
    13
100
AcDbEllipse
 10
120.176937
 20
216.692655
 30
0.0
 11
1.913377095482694E-14
 21
16.33333333331545
 31
0.0
210
0.0
220
0.0
230
1.0
 40
0.795918
 41
3.85729899754227
 42
4.184056054666934
  0
ELLIPSE
  5
CA
330
1F
100
AcDbEntity
  8
1
  6
Continuous
 62
     1
370
    13
100
AcDbEllipse
 10
120.176937
 20
216.692655
 30
0.0
 11
1.913377095484295E-14
 21
16.33333333332912
 31
0.0
210
0.0
220
0.0
230
1.0
 40
0.795918
 41
2.095876250724305
 42
2.425886309637196
  0
ELLIPSE
  5
CB
330
1F
100
AcDbEntity
  8
1
  6
Continuous
 62
     1
370
    13
100
AcDbEllipse
 10
120.176937
 20
218.259117
 30
0.0
 11
1.913377095484668E-14
 21
16.33333333333229
 31
0.0
210
0.0
220
0.0
230
1.0
 40
0.612245
 41
2.08609876963701
 42
2.80158030669739
  0
ELLIPSE
  5
CC
330
1F
100
AcDbEntity
  8
1
  6
Continuous
 62
     1
370
    13
100
AcDbEllipse
 10
277.887454
 20
204.688396
 30
0.0
 11
-2.984979564266932
 21
-1.82753850873485
 31
0.0
210
0.0
220
0.0
230
1.0
 40
0.999655
 41
0.0
 42
0.9271661593471789
  0
ELLIPSE
  5
CD
330
1F
100
AcDbEntity
  8
1
  6
Continuous
 62
     1
370
    13
100
AcDbEllipse
 10
250.465021
 20
204.367032
 30
0.0
 11
0.0
 21
-3.5
 31
0.0
210
0.0
220
0.0
230
1.0
 40
0.75463
 41
0.4429110440736406
 42
1.570796326794896
  0
ELLIPSE
  5
CE
330
1F
100
AcDbEntity
  8
1
  6
Continuous
 62
     1
370
    13
100
AcDbEllipse
 10
247.945376
 20
204.688396
 30
0.0
 11
-2.984979564266923
 21
1.827538508734864
 31
0.0
210
0.0
220
0.0
230
1.0
 40
0.999655
 41
2.214426494242613
 42
3.141592653589784
  0
ELLIPSE
  5
CF
330
1F
100
AcDbEntity
  8
1
  6
Continuous
 62
     1
370
    13
100
AcDbEllipse
 10
252.444901
 20
212.03762
 30
0.0
 11
-2.984979564266923
 21
1.827538508734864
 31
0.0
210
0.0
220
0.0
230
1.0
 40
0.998743
 41
3.141592653589779
 42
3.759284256064179
  0
ELLIPSE
  5
D0
330
1F
100
AcDbEntity
  8
1
  6
Continuous
 62
     1
370
    13
100
AcDbEllipse
 10
273.387929
 20
212.03762
 30
0.0
 11
-2.984979564266932
 21
-1.82753850873485
 31
0.0
210
0.0
220
0.0
230
1.0
 40
0.998743
 41
5.66549370470519
 42
6.283185307179586
  0
ELLIPSE
  5
D1
330
1F
100
AcDbEntity
  8
1
  6
Continuous
 62
     1
370
    13
100
AcDbEllipse
 10
271.187571
 20
208.505046
 30
0.0
 11
-2.634687511084947
 21
2.304001241087559
 31
0.0
210
0.0
220
0.0
230
1.0
 40
0.35633
 41
0.3453556338783183
 42
1.183864227363863
  0
ELLIPSE
  5
D2
330
1F
100
AcDbEntity
  8
1
  6
Continuous
 62
     1
370
    13
100
AcDbEllipse
 10
254.64526
 20
208.505046
 30
0.0
 11
2.634687511084947
 21
2.304001241087557
 31
0.0
210
0.0
220
0.0
230
1.0
 40
0.35633
 41
5.099321079815721
 42
5.937829673301264
  0
ELLIPSE
  5
D3
330
1F
100
AcDbEntity
  8
1
  6
Continuous
 62
     1
370
    13
100
AcDbEllipse
 10
275.36781
 20
204.367032
 30
0.0
 11
0.0
 21
3.5
 31
0.0
210
0.0
220
0.0
230
1.0
 40
0.75463
 41
1.570796326794897
 42
2.698681609516157
  0
ELLIPSE
  5
D4
330
1F
100
AcDbEntity
  8
1
  6
Continuous
 62
     1
370
    18
100
AcDbEllipse
 10
247.955043
 20
204.704184
 30
0.0
 11
-2.984979564266923
 21
1.827538508734864
 31
0.0
210
0.0
220
0.0
230
1.0
 40
0.999997
 41
2.143573929835777
 42
3.141293600402275
  0
ELLIPSE
  5
D5
330
1F
100
AcDbEntity
  8
1
  6
Continuous
 62
     1
370
    18
100
AcDbEllipse
 10
277.877788
 20
204.704184
 30
0.0
 11
2.984979564266967
 21
1.827538508734792
 31
0.0
210
0.0
220
0.0
230
1.0
 40
0.999997
 41
3.141886905159582
 42
4.136958573326171
  0
ELLIPSE
  5
D6
330
1F
100
AcDbEntity
  8
1
  6
Continuous
 62
     1
370
    18
100
AcDbEllipse
 10
252.416433
 20
211.991108
 30
0.0
 11
-2.984979564266923
 21
1.827538508734864
 31
0.0
210
0.0
220
0.0
230
1.0
 40
1.0
 41
3.672956614229853
 42
3.691152904443912
  0
ELLIPSE
  5
D7
330
1F
100
AcDbEntity
  8
1
  6
Continuous
 62
     1
370
    18
100
AcDbEllipse
 10
252.416496
 20
211.991224
 30
0.0
 11
2.984979564266886
 21
-1.827538508734926
 31
0.0
210
0.0
220
0.0
230
1.0
 40
0.999998
 41
0.0009712816259404
 42
0.546917957355465
  0
ELLIPSE
  5
D8
330
1F
100
AcDbEntity
  8
1
  6
Continuous
 62
     1
370
    18
100
AcDbEllipse
 10
273.416395
 20
211.99111
 30
0.0
 11
2.984979564266967
 21
1.827538508734792
 31
0.0
210
0.0
220
0.0
230
1.0
 40
1.0
 41
2.591765548080901
 42
3.140349301749392
  0
ELLIPSE
  5
D9
330
1F
100
AcDbEntity
  8
1
  6
Continuous
 62
     1
370
    18
100
AcDbEllipse
 10
273.416337
 20
211.991222
 30
0.0
 11
-2.984979564266932
 21
-1.82753850873485
 31
0.0
210
0.0
220
0.0
230
1.0
 40
0.999998
 41
5.735176670855402
 42
6.282181628792454
  0
ELLIPSE
  5
DA
330
1F
100
AcDbEntity
  8
1
  6
Continuous
 62
     1
370
    13
100
AcDbEllipse
 10
123.511924
 20
36.675529
 30
0.0
 11
0.04798412949453706
 21
3.499671059302096
 31
0.0
210
0.0
220
0.0
230
1.0
 40
0.022387
 41
0.5495279711920732
 42
1.476694130539254
  0
ELLIPSE
  5
DB
330
1F
100
AcDbEntity
  8
1
  6
Continuous
 62
     1
370
    13
100
AcDbEllipse
 10
123.511924
 20
66.617607
 30
0.0
 11
-0.04798412949453749
 21
3.499671059302096
 31
0.0
210
0.0
220
0.0
230
1.0
 40
0.022387
 41
1.66489852305054
 42
2.592064682397713
  0
ELLIPSE
  5
DC
330
1F
100
AcDbEntity
  8
1
  6
Continuous
 62
     1
370
    13
100
AcDbEllipse
 10
116.84195
 20
36.675529
 30
0.0
 11
-0.04798412949453749
 21
3.499671059302096
 31
0.0
210
0.0
220
0.0
230
1.0
 40
0.022387
 41
4.806491176640332
 42
5.733657335987508
  0
ELLIPSE
  5
DD
330
1F
100
AcDbEntity
  8
1
  6
Continuous
 62
     1
370
    13
100
AcDbEllipse
 10
116.84195
 20
66.617607
 30
0.0
 11
0.04798412949453706
 21
3.499671059302096
 31
0.0
210
0.0
220
0.0
230
1.0
 40
0.022387
 41
3.691120624781878
 42
4.618286784129052
  0
ELLIPSE
  5
DE
330
1F
100
AcDbEntity
  8
1
  6
Continuous
 62
     1
370
    13
100
AcDbEllipse
 10
111.4755
 20
62.118082
 30
0.0
 11
0.09170316480162892
 21
-3.498798440831562
 31
0.0
210
0.0
220
0.0
230
1.0
 40
0.042756
 41
5.7332503513045
 42
6.157084139975729
  0
ELLIPSE
  5
DF
330
1F
100
AcDbEntity
  8
1
  6
Continuous
 62
     1
370
    13
100
AcDbEllipse
 10
128.875961
 20
62.122341
 30
0.0
 11
-0.08376771870278361
 21
-3.498997423449084
 31
0.0
210
0.0
220
0.0
230
1.0
 40
0.039062
 41
0.1162238772861688
 42
0.5498421752126585
  0
ELLIPSE
  5
E0
330
1F
100
AcDbEntity
  8
1
  6
Continuous
 62
     1
370
    13
100
AcDbEllipse
 10
111.4755
 20
41.175054
 30
0.0
 11
-0.09170316480163065
 21
-3.498798440831562
 31
0.0
210
0.0
220
0.0
230
1.0
 40
0.042756
 41
3.267693820793638
 42
3.691527609464878
  0
ELLIPSE
  5
E1
330
1F
100
AcDbEntity
  8
1
  6
Continuous
 62
     1
370
    13
100
AcDbEllipse
 10
128.875961
 20
41.170795
 30
0.0
 11
0.08376771870278371
 21
-3.498997423449085
 31
0.0
210
0.0
220
0.0
230
1.0
 40
0.039062
 41
2.591750478377144
 42
3.025368776303647
  0
SPLINE
  5
E2
330
1F
100
AcDbEntity
  8
1
  6
Continuous
 62
     1
370
    13
100
AcDbSpline
210
0.0
220
0.0
230
1.0
 70
     8
 71
     3
 72
    29
 73
    25
 74
     0
 42
0.000000001
 43
0.0000000001
 40
0.0
 40
0.0
 40
0.0
 40
0.0
 40
0.1249999999999996
 40
0.1249999999999996
 40
0.2499999999999992
 40
0.2499999999999992
 40
0.3749999999999988
 40
0.3749999999999988
 40
0.4374999999999988
 40
0.4374999999999988
 40
0.4687499999999988
 40
0.4687499999999988
 40
0.4999999999999988
 40
0.4999999999999988
 40
0.6249999999999991
 40
0.6249999999999991
 40
0.7499999999999994
 40
0.7499999999999994
 40
0.8124999999999997
 40
0.8437499999999998
 40
0.8437499999999998
 40
0.8749999999999999
 40
0.8749999999999999
 40
1.0
 40
1.0
 40
1.0
 40
1.0
 10
123.5119243674371
 20
202.8608576587236
 30
0.0
 10
123.7493088596916
 20
202.9182173490434
 30
0.0
 10
123.9852993727178
 20
202.9768917160685
 30
0.0
 10
124.4544486175612
 20
203.0947846742523
 30
0.0
 10
124.6876016457856
 20
203.1540097202396
 30
0.0
 10
125.1505807392977
 20
203.2724451116715
 30
0.0
 10
125.380401130106
 20
203.3316685116247
 30
0.0
 10
125.7220659389107
 20
203.4209916915866
 30
0.0
 10
125.835441727298
 20
203.4508556459506
 30
0.0
 10
126.0046570105776
 20
203.4959057779695
 30
0.0
 10
126.0609614917973
 20
203.5109762382044
 30
0.0
 10
126.1730284241054
 20
203.5411597712728
 30
0.0
 10
126.2287910534165
 20
203.5562727529603
 30
0.0
 10
126.5062154109689
 20
203.6319995061022
 30
0.0
 10
126.7237030009078
 20
203.6930969391399
 30
0.0
 10
127.1490147995349
 20
203.8178308115943
 30
0.0
 10
127.3568416290426
 20
203.8814746971745
 30
0.0
 10
127.6608900166869
 20
203.9799113254546
 30
0.0
 10
127.8109927842797
 20
204.0298700657999
 30
0.0
 10
127.9581374661588
 20
204.0811129250256
 30
0.0
 10
128.0555681905399
 20
204.115577585614
 30
0.0
 10
128.1039755140082
 20
204.1329706833364
 30
0.0
 10
128.3437715124055
 20
204.2205304761608
 30
0.0
 10
128.5287769162659
 20
204.2926053924064
 30
0.0
 10
128.706894957784
 20
204.3670323250106
 30
0.0
  0
SPLINE
  5
E3
330
1F
100
AcDbEntity
  8
1
  6
Continuous
 62
     1
370
    13
100
AcDbSpline
210
0.0
220
0.0
230
1.0
 70
     8
 71
     3
 72
    21
 73
    17
 74
     0
 42
0.000000001
 43
0.0000000001
 40
0.0
 40
0.0
 40
0.0
 40
0.0
 40
0.1250000000000001
 40
0.1250000000000001
 40
0.2500000000000001
 40
0.2500000000000001
 40
0.3750000000000002
 40
0.3750000000000002
 40
0.5000000000000002
 40
0.6250000000000001
 40
0.6250000000000001
 40
0.7500000000000001
 40
0.7500000000000001
 40
0.875
 40
0.875
 40
1.0
 40
1.0
 40
1.0
 40
1.0
 10
116.8419497233205
 20
202.8608576587236
 30
0.0
 10
117.1198014263195
 20
202.8670800638362
 30
0.0
 10
117.3977237467304
 20
202.8707138891489
 30
0.0
 10
117.9535502166628
 20
202.8753386964718
 30
0.0
 10
118.2314695557108
 20
202.8763219407325
 30
0.0
 10
118.7873128667551
 20
202.8772796081212
 30
0.0
 10
119.0652368567123
 20
202.8772501202682
 30
0.0
 10
119.6210852028066
 20
202.8771114091692
 30
0.0
 10
120.1769329024126
 20
202.8768897783917
 30
0.0
 10
120.7327829189551
 20
202.8771114068117
 30
0.0
 10
121.2886324166923
 20
202.8772501199339
 30
0.0
 10
121.5665569161115
 20
202.8772796095695
 30
0.0
 10
122.1223995538221
 20
202.8763219552884
 30
0.0
 10
122.4003177165481
 20
202.8753387165088
 30
0.0
 10
122.9561374094388
 20
202.8707140279696
 30
0.0
 10
123.2340389911598
 20
202.8670808179391
 30
0.0
 10
123.5119243674371
 20
202.8608576587236
 30
0.0
  0
SPLINE
  5
E4
330
1F
100
AcDbEntity
  8
1
  6
Continuous
 62
     1
370
    13
100
AcDbSpline
210
0.0
220
0.0
230
1.0
 70
     8
 71
     3
 72
    37
 73
    33
 74
     0
 42
0.000000001
 43
0.0000000001
 40
0.0
 40
0.0
 40
0.0
 40
0.0
 40
0.0617278564400086
 40
0.0617278564400086
 40
0.0773657254993416
 40
0.0773657254993416
 40
0.0930035945586747
 40
0.0930035945586747
 40
0.1242793326773405
 40
0.1242793326773405
 40
0.2493822851520043
 40
0.2493822851520043
 40
0.374485237626668
 40
0.374485237626668
 40
0.4370367138640002
 40
0.4370367138640002
 40
0.452674582923333
 40
0.452674582923333
 40
0.4683124519826657
 40
0.4995881901013323
 40
0.4995881901013323
 40
0.6246911425760002
 40
0.6246911425760002
 40
0.749794095050668
 40
0.749794095050668
 40
0.8123455712880017
 40
0.8123455712880017
 40
0.8436213094066679
 40
0.8436213094066679
 40
0.8748970475253345
 40
0.8748970475253345
 40
1.0
 40
1.0
 40
1.0
 40
1.0
 10
133.176936846527
 20
205.0364815281335
 30
0.0
 10
133.176965409826
 20
205.0364367246697
 30
0.0
 10
133.1739368448551
 20
205.0411727050572
 30
0.0
 10
133.1662190612557
 20
205.0532699397231
 30
0.0
 10
133.1644581563569
 20
205.0560310261375
 30
0.0
 10
133.1605318187414
 20
205.0621909081626
 30
0.0
 10
133.1583633985416
 20
205.0655943972865
 30
0.0
 10
133.1512740651391
 20
205.0767289332209
 30
0.0
 10
133.145770984812
 20
205.0853808742374
 30
0.0
 10
133.1144789634054
 20
205.1346675209301
 30
0.0
 10
133.0773831861142
 20
205.1932955594534
 30
0.0
 10
132.9814044070672
 20
205.3474242532764
 30
0.0
 10
132.922511340573
 20
205.4429331539011
 30
0.0
 10
132.8192622215067
 20
205.614254903663
 30
0.0
 10
132.7823586621829
 20
205.6760536452469
 30
0.0
 10
132.7332609316408
 20
205.7593237463441
 30
0.0
 10
132.7232965856268
 20
205.7762731621897
 30
0.0
 10
132.7031599814926
 20
205.8106335342047
 30
0.0
 10
132.6726134001269
 20
205.8629169318658
 30
0.0
 10
132.6410778488699
 20
205.917409321153
 30
0.0
 10
132.5339157393976
 20
206.1038900982406
 30
0.0
 10
132.4416604736233
 20
206.2685001722622
 30
0.0
 10
132.2477573751194
 20
206.6278362417659
 30
0.0
 10
132.1460972976949
 20
206.8225696096363
 30
0.0
 10
131.9891852323755
 20
207.137766824428
 30
0.0
 10
131.9361442899157
 20
207.2466922877292
 30
0.0
 10
131.8558181242409
 20
207.416023883247
 30
0.0
 10
131.8289963048306
 20
207.473289295479
 30
0.0
 10
131.7753896030281
 20
207.5893099855657
 30
0.0
 10
131.7485934438555
 20
207.6480890071615
 30
0.0
 10
131.614796855819
 20
207.945821207902
 30
0.0
 10
131.5083503648735
 20
208.1962549735988
 30
0.0
 10
131.404369272132
 20
208.4591151892522
 30
0.0
  0
SPLINE
  5
E5
330
1F
100
AcDbEntity
  8
1
  6
Continuous
 62
     1
370
    13
100
AcDbSpline
210
0.0
220
0.0
230
1.0
 70
     8
 71
     3
 72
    33
 73
    29
 74
     0
 42
0.000000001
 43
0.0000000001
 40
0.0
 40
0.0
 40
0.0
 40
0.0
 40
0.1249033438573474
 40
0.1249033438573474
 40
0.2498066877146947
 40
0.2498066877146947
 40
0.3747100315720421
 40
0.3747100315720421
 40
0.3903229495542105
 40
0.3903229495542105
 40
0.4059358675363788
 40
0.4371617035007158
 40
0.4996133754293904
 40
0.4996133754293904
 40
0.6245167192867395
 40
0.6245167192867395
 40
0.686968391215414
 40
0.686968391215414
 40
0.7181942271797512
 40
0.7338071451619198
 40
0.7338071451619198
 40
0.7494200631440884
 40
0.7494200631440884
 40
0.8743234070014368
 40
0.8743234070014368
 40
0.9992267508587854
 40
0.9992267508587854
 40
1.0
 40
1.0
 40
1.0
 40
1.0
 10
108.9282466060754
 20
208.5050463642986
 30
0.0
 10
108.8248352601929
 20
208.2459677605738
 30
0.0
 10
108.7196812369515
 20
208.0005220508824
 30
0.0
 10
108.5095809223075
 20
207.535803382709
 30
0.0
 10
108.4046277924432
 20
207.3165265725413
 30
0.0
 10
108.1985388015971
 20
206.9039451941906
 30
0.0
 10
108.0973925759387
 20
206.7106310865871
 30
0.0
 10
107.987880348729
 20
206.5082580273668
 30
0.0
 10
107.9757653069309
 20
206.4859706964115
 30
0.0
 10
107.9517494250803
 20
206.4419791989698
 30
0.0
 10
107.9160169816882
 20
206.3768111657162
 30
0.0
 10
107.8347393490337
 20
206.2304457168816
 30
0.0
 10
107.7688672521017
 20
206.1146216853135
 30
0.0
 10
107.6427059863473
 20
205.895613400546
 30
0.0
 10
107.5660333047917
 20
205.7664080675116
 30
0.0
 10
107.4643480826566
 20
205.5979205600362
 30
0.0
 10
107.4326753146859
 20
205.5459909766516
 30
0.0
 10
107.3887987294204
 20
205.4745877579076
 30
0.0
 10
107.3677689689781
 20
205.4405103515615
 30
0.0
 10
107.3481623633298
 20
205.4089095951715
 30
0.0
 10
107.3354146146771
 20
205.3883983130677
 30
0.0
 10
107.329200289382
 20
205.378417247228
 30
0.0
 10
107.2749927161447
 20
205.2914900253849
 30
0.0
 10
107.2385846352324
 20
205.2340427986215
 30
0.0
 10
107.1896642679224
 20
205.1570903097016
 30
0.0
 10
107.1771491029221
 20
205.1375883675734
 30
0.0
 10
107.1769383675731
 20
205.1372589865653
 30
0.0
 10
107.1769378285169
 20
205.1372581441765
 30
0.0
 10
107.1769372903371
 20
205.1372573012279
 30
0.0
  0
SPLINE
  5
E6
330
1F
100
AcDbEntity
  8
1
  6
Continuous
 62
     1
370
    13
100
AcDbSpline
210
0.0
220
0.0
230
1.0
 70
     8
 71
     3
 72
    32
 73
    28
 74
     0
 42
0.000000001
 43
0.0000000001
 40
0.0
 40
0.0
 40
0.0
 40
0.0
 40
0.0012589224296483
 40
0.0012589224296483
 40
0.1261015571259427
 40
0.1261015571259427
 40
0.2509441918222374
 40
0.2509441918222374
 40
0.266549521159274
 40
0.2821548504963108
 40
0.2821548504963108
 40
0.3133655091703846
 40
0.3757868265185318
 40
0.3757868265185318
 40
0.5006294612148258
 40
0.5006294612148258
 40
0.62547209591112
 40
0.62547209591112
 40
0.6410774252481569
 40
0.6410774252481569
 40
0.656682754585194
 40
0.687893413259267
 40
0.7503147306074138
 40
0.7503147306074138
 40
0.8751573653037069
 40
0.8751573653037069
 40
1.0
 40
1.0
 40
1.0
 40
1.0
 10
105.4907827363385
 20
208.1305773560998
 30
0.0
 10
105.4907814207821
 20
208.130575881298
 30
0.0
 10
105.4907827663323
 20
208.1305773934133
 30
0.0
 10
105.4909384310293
 20
208.1307522998064
 30
0.0
 10
105.5011838911753
 20
208.1422243483998
 30
0.0
 10
105.5414267000114
 20
208.1877676190604
 30
0.0
 10
105.5714261643813
 20
208.2218349084048
 30
0.0
 10
105.6161540922806
 20
208.2735711740137
 30
0.0
 10
105.6263984733022
 20
208.285441980256
 30
0.0
 10
105.6372534691996
 20
208.2980704266248
 30
0.0
 10
105.6539364999922
 20
208.3175211707719
 30
0.0
 10
105.6889553892717
 20
208.358514414421
 30
0.0
 10
105.7287726114538
 20
208.4057566560872
 30
0.0
 10
105.8143960744749
 20
208.5086141417299
 30
0.0
 10
105.8794662880653
 20
208.5883088599531
 30
0.0
 10
106.0234420685425
 20
208.7711222622181
 30
0.0
 10
106.1023594299436
 20
208.8742294393454
 30
0.0
 10
106.197608327882
 20
209.0048707347275
 30
0.0
 10
106.2082897949218
 20
209.0196031051684
 30
0.0
 10
106.2297714403993
 20
209.0494072336429
 30
0.0
 10
106.262175314543
 20
209.0946266909405
 30
0.0
 10
106.338974702845
 20
209.2037500687814
 30
0.0
 10
106.4065712061862
 20
209.3035476835628
 30
0.0
 10
106.5433667214897
 20
209.5117944255411
 30
0.0
 10
106.6367269883925
 20
209.6621141560391
 30
0.0
 10
106.8232786716079
 20
209.9883735000987
 30
0.0
 10
106.9164916348792
 20
210.1642959775897
 30
0.0
 10
107.0068386355301
 20
210.3551885990554
 30
0.0
  0
SPLINE
  5
E7
330
1F
100
AcDbEntity
  8
1
  6
Continuous
 62
     1
370
    13
100
AcDbSpline
210
0.0
220
0.0
230
1.0
 70
     8
 71
     3
 72
    35
 73
    31
 74
     0
 42
0.000000001
 43
0.0000000001
 40
0.0
 40
0.0
 40
0.0
 40
0.0
 40
0.1250809343965275
 40
0.1250809343965275
 40
0.1563511679956599
 40
0.1563511679956599
 40
0.1876214015947923
 40
0.1876214015947923
 40
0.2501618687930569
 40
0.2501618687930569
 40
0.3752428031895868
 40
0.3752428031895868
 40
0.5003237375861168
 40
0.5003237375861168
 40
0.5315939711852494
 40
0.5315939711852494
 40
0.5472290879848155
 40
0.5472290879848155
 40
0.5628642047843815
 40
0.6254046719826457
 40
0.6254046719826457
 40
0.7504856063791742
 40
0.7504856063791742
 40
0.8755665407757026
 40
0.8755665407757026
 40
0.9068367743748347
 40
0.9068367743748347
 40
0.9381070079739668
 40
0.9381070079739668
 40
1.0
 40
1.0
 40
1.0
 40
1.0
 10
133.3428183185182
 20
210.2996011775979
 30
0.0
 10
133.4338210263193
 20
210.1060940968039
 30
0.0
 10
133.5284930723919
 20
209.9265563889452
 30
0.0
 10
133.6477722854934
 20
209.7175004529294
 30
0.0
 10
133.6716778415814
 20
209.6764613863701
 30
0.0
 10
133.7195070394238
 20
209.595889715039
 30
0.0
 10
133.743459209679
 20
209.5563118726855
 30
0.0
 10
133.8148899923616
 20
209.4403274625622
 30
0.0
 10
133.8620095431437
 20
209.3665422106336
 30
0.0
 10
134.0010833567785
 20
209.1550315263889
 30
0.0
 10
134.0907350351932
 20
209.0271020083469
 30
0.0
 10
134.2603774851306
 20
208.7947006122845
 30
0.0
 10
134.3403839757415
 20
208.6902389641787
 30
0.0
 10
134.4324120009929
 20
208.5735710525285
 30
0.0
 10
134.4504189383947
 20
208.550936189069
 30
0.0
 10
134.4767949332541
 20
208.5180273172569
 30
0.0
 10
134.485488070525
 20
208.5072231436146
 30
0.0
 10
134.5026145463272
 20
208.4860145675687
 30
0.0
 10
134.5447845395124
 20
208.4339890658572
 30
0.0
 10
134.5836898346093
 20
208.3868659782656
 30
0.0
 10
134.6705507140204
 20
208.2827678441994
 30
0.0
 10
134.7197781778819
 20
208.2253251206542
 30
0.0
 10
134.7995884792
 20
208.13321320209
 30
0.0
 10
134.8301777760652
 20
208.0985459638676
 30
0.0
 10
134.8558677986108
 20
208.0695379814133
 30
0.0
 10
134.8603778227041
 20
208.0644558120453
 30
0.0
 10
134.8681163629808
 20
208.0557453984602
 30
0.0
 10
134.8713277243001
 20
208.0521364417089
 30
0.0
 10
134.8789410217941
 20
208.0435861824828
 30
0.0
 10
134.8814351509604
 20
208.0407924657071
 30
0.0
 10
134.881407171299
 20
208.0408238866864
 30
0.0
  0
SPLINE
  5
E8
330
1F
100
AcDbEntity
  8
1
  6
Continuous
 62
     1
370
    13
100
AcDbSpline
210
0.0
220
0.0
230
1.0
 70
     8
 71
     3
 72
    27
 73
    23
 74
     0
 42
0.000000001
 43
0.0000000001
 40
0.0
 40
0.0
 40
0.0
 40
0.0
 40
0.1250000000000001
 40
0.1250000000000001
 40
0.2500000000000002
 40
0.2500000000000002
 40
0.3750000000000002
 40
0.3750000000000002
 40
0.4375000000000002
 40
0.4375000000000002
 40
0.5000000000000001
 40
0.5625000000000001
 40
0.5625000000000001
 40
0.6250000000000001
 40
0.6250000000000001
 40
0.6875
 40
0.6875
 40
0.75
 40
0.75
 40
0.875
 40
0.875
 40
1.0
 40
1.0
 40
1.0
 40
1.0
 10
111.5771207989656
 20
212.2743706143443
 30
0.0
 10
112.2893286343409
 20
212.1631582404356
 30
0.0
 10
113.0031721304263
 20
212.0734588014064
 30
0.0
 10
114.4335658948406
 20
211.9295812951711
 30
0.0
 10
115.1501149574896
 20
211.8753870480959
 30
0.0
 10
116.5852827196108
 20
211.794050555931
 30
0.0
 10
117.3038943107623
 20
211.76681385425
 30
0.0
 10
118.3829155517314
 20
211.7402896785775
 30
0.0
 10
118.7428458551742
 20
211.7338512247176
 30
0.0
 10
119.4623493822824
 20
211.7251650015832
 30
0.0
 10
120.1816409890301
 20
211.7206585998588
 30
0.0
 10
120.9005337389378
 20
211.7240028962936
 30
0.0
 10
121.6192183661747
 20
211.7314500598868
 30
0.0
 10
121.9784564930741
 20
211.7372276285323
 30
0.0
 10
122.6966963727553
 20
211.7534619879049
 30
0.0
 10
123.0556979241829
 20
211.7639228808845
 30
0.0
 10
123.7734219865676
 20
211.7903943401228
 30
0.0
 10
124.132144293751
 20
211.8064090601737
 30
0.0
 10
125.2078165670974
 20
211.8643302587921
 30
0.0
 10
125.9242708574479
 20
211.9161346680122
 30
0.0
 10
127.3554377516971
 20
212.0547078050369
 30
0.0
 10
128.0701493467583
 20
212.1414973119545
 30
0.0
 10
128.7837981085356
 20
212.2496876022093
 30
0.0
  0
SPLINE
  5
E9
330
1F
100
AcDbEntity
  8
1
  6
Continuous
 62
     1
370
    13
100
AcDbSpline
210
0.0
220
0.0
230
1.0
 70
     8
 71
     3
 72
    42
 73
    38
 74
     0
 42
0.000000001
 43
0.0000000001
 40
0.0
 40
0.0
 40
0.0
 40
0.0
 40
0.062500000000001
 40
0.1250000000000019
 40
0.1875000000000029
 40
0.1875000000000029
 40
0.2031250000000029
 40
0.2031250000000029
 40
0.2187500000000029
 40
0.2187500000000029
 40
0.2500000000000026
 40
0.2500000000000026
 40
0.2812500000000023
 40
0.2812500000000023
 40
0.312500000000002
 40
0.312500000000002
 40
0.3750000000000024
 40
0.3750000000000024
 40
0.5000000000000034
 40
0.5000000000000034
 40
0.5156250000000028
 40
0.5156250000000028
 40
0.5312500000000021
 40
0.5312500000000021
 40
0.5625000000000016
 40
0.5625000000000016
 40
0.6250000000000014
 40
0.6250000000000014
 40
0.7500000000000022
 40
0.7500000000000022
 40
0.7812500000000019
 40
0.7812500000000019
 40
0.8125000000000014
 40
0.8125000000000014
 40
0.8750000000000007
 40
0.8750000000000007
 40
1.0
 40
1.0
 40
1.0
 40
1.0
 10
107.0068386355301
 20
210.3551885990554
 30
0.0
 10
107.0467027612502
 20
210.4394168236375
 30
0.0
 10
107.1365215436068
 20
210.6049956690981
 30
0.0
 10
107.300903532999
 20
210.8448233119079
 30
0.0
 10
107.430340690484
 20
210.9988302920388
 30
0.0
 10
107.5176226369947
 20
211.093106271768
 30
0.0
 10
107.5353988471662
 20
211.1118621944308
 30
0.0
 10
107.5715980450868
 20
211.1491704722326
 30
0.0
 10
107.5900362360698
 20
211.1677373341014
 30
0.0
 10
107.6461522630126
 20
211.2229486133751
 30
0.0
 10
107.684665397842
 20
211.2591422496592
 30
0.0
 10
107.7638924362925
 20
211.3302784539362
 30
0.0
 10
107.8046552331308
 20
211.3652552018933
 30
0.0
 10
107.8877137861079
 20
211.4333919934637
 30
0.0
 10
107.9300808295968
 20
211.4666197944457
 30
0.0
 10
108.0596312672085
 20
211.5638020602328
 30
0.0
 10
108.1492595678238
 20
211.6252607804914
 30
0.0
 10
108.427597344189
 20
211.7996009378599
 30
0.0
 10
108.6257101244475
 20
211.9025176489413
 30
0.0
 10
108.8625444275742
 20
212.0021060511405
 30
0.0
 10
108.8890542530236
 20
212.012945034835
 30
0.0
 10
108.9424648474442
 20
212.0341634720563
 30
0.0
 10
108.9693833719619
 20
212.0445492409082
 30
0.0
 10
109.0504887099729
 20
212.074918899179
 30
0.0
 10
109.1051301859744
 20
212.0941526162698
 30
0.0
 10
109.2697174848142
 20
212.1484943418229
 30
0.0
 10
109.3805801163013
 20
212.1803508475201
 30
0.0
 10
109.7163293136807
 20
212.2632650129763
 30
0.0
 10
109.9443682751383
 20
212.3016853681017
 30
0.0
 10
110.2340566899218
 20
212.3295720556343
 30
0.0
 10
110.2922271283166
 20
212.3341408070437
 30
0.0
 10
110.409020589908
 20
212.341280136075
 30
0.0
 10
110.4677341031985
 20
212.3438521690923
 30
0.0
 10
110.6437397724182
 20
212.3485840430496
 30
0.0
 10
110.7608730255893
 20
212.3477772179858
 30
0.0
 10
111.1116808672055
 20
212.3343247513848
 30
0.0
 10
111.3447620069535
 20
212.3106538052538
 30
0.0
 10
111.5771207989656
 20
212.2743706143443
 30
0.0
  0
SPLINE
  5
EA
330
1F
100
AcDbEntity
  8
1
  6
Continuous
 62
     1
370
    13
100
AcDbSpline
210
0.0
220
0.0
230
1.0
 70
     8
 71
     3
 72
    38
 73
    34
 74
     0
 42
0.000000001
 43
0.0000000001
 40
0.0
 40
0.0
 40
0.0
 40
0.0
 40
0.1250000000000029
 40
0.1250000000000029
 40
0.2500000000000058
 40
0.2500000000000058
 40
0.2812500000000062
 40
0.2812500000000062
 40
0.3125000000000066
 40
0.3750000000000068
 40
0.3750000000000068
 40
0.5000000000000071
 40
0.5000000000000071
 40
0.5156250000000071
 40
0.5156250000000071
 40
0.5312500000000071
 40
0.5312500000000071
 40
0.5625000000000069
 40
0.5625000000000069
 40
0.6250000000000066
 40
0.6250000000000066
 40
0.6875000000000062
 40
0.6875000000000062
 40
0.7500000000000059
 40
0.7500000000000059
 40
0.7656250000000061
 40
0.7656250000000061
 40
0.7812500000000062
 40
0.8125000000000054
 40
0.8125000000000054
 40
0.8750000000000037
 40
0.9375000000000019
 40
1.0
 40
1.0
 40
1.0
 40
1.0
 10
128.7837981085356
 20
212.2496876022093
 30
0.0
 10
129.0161399856658
 20
212.2849110012698
 30
0.0
 10
129.2485875926093
 20
212.3073150195724
 30
0.0
 10
129.7135983537087
 20
212.322738413339
 30
0.0
 10
129.9461620359569
 20
212.3157789742628
 30
0.0
 10
130.2368282008325
 20
212.2861985203646
 30
0.0
 10
130.2949851071911
 20
212.2792329238394
 30
0.0
 10
130.4111844687863
 20
212.2631510718501
 30
0.0
 10
130.5843939660085
 20
212.2359307838359
 30
0.0
 10
130.7542836768795
 20
212.1994416993731
 30
0.0
 10
131.0894681396975
 20
212.114110049438
 30
0.0
 10
131.3068252327237
 20
212.0408124317883
 30
0.0
 10
131.5437197793111
 20
211.939338350766
 30
0.0
 10
131.5699348158466
 20
211.9277980806987
 30
0.0
 10
131.6221479349723
 20
211.9041823777138
 30
0.0
 10
131.6481507678152
 20
211.8921036020661
 30
0.0
 10
131.7254082990295
 20
211.8552632393374
 30
0.0
 10
131.7760542180111
 20
211.8298350529885
 30
0.0
 10
131.9254327271081
 20
211.7510263657087
 30
0.0
 10
132.0216100280339
 20
211.6951267235699
 30
0.0
 10
132.2071537917219
 20
211.576912443121
 30
0.0
 10
132.2965209743757
 20
211.5145981235961
 30
0.0
 10
132.4683163224256
 20
211.3836975516762
 30
0.0
 10
132.5507457173931
 20
211.3151121022759
 30
0.0
 10
132.6492634406324
 20
211.2254378639436
 30
0.0
 10
132.6687697353023
 20
211.2072770220452
 30
0.0
 10
132.7071197574306
 20
211.1707536026563
 30
0.0
 10
132.7636857891721
 20
211.1156380049525
 30
0.0
 10
132.8174118927607
 20
211.0595586285225
 30
0.0
 10
132.9211527847453
 20
210.9461740401978
 30
0.0
 10
133.0495920932316
 20
210.7917342028483
 30
0.0
 10
133.2132402783845
 20
210.5509045565368
 30
0.0
 10
133.302947651182
 20
210.384381692727
 30
0.0
 10
133.3428183185182
 20
210.2996011775979
 30
0.0
  0
SPLINE
  5
EB
330
1F
100
AcDbEntity
  8
1
  6
Continuous
 62
     1
370
    13
100
AcDbSpline
210
0.0
220
0.0
230
1.0
 70
     8
 71
     3
 72
    35
 73
    31
 74
     0
 42
0.000000001
 43
0.0000000001
 40
0.0
 40
0.0
 40
0.0
 40
0.0
 40
0.0625000000000001
 40
0.0625000000000001
 40
0.1250000000000001
 40
0.1875000000000001
 40
0.1875000000000001
 40
0.2500000000000001
 40
0.2500000000000001
 40
0.3125000000000001
 40
0.3125000000000001
 40
0.3750000000000001
 40
0.3750000000000001
 40
0.4375
 40
0.4375
 40
0.5
 40
0.5624999999999999
 40
0.5624999999999999
 40
0.6249999999999998
 40
0.6249999999999998
 40
0.6874999999999999
 40
0.6874999999999999
 40
0.7499999999999999
 40
0.7499999999999999
 40
0.8124999999999999
 40
0.8124999999999999
 40
0.8749999999999999
 40
0.9375
 40
0.9375
 40
1.0
 40
1.0
 40
1.0
 40
1.0
 10
128.8759609132302
 20
210.2031258783529
 30
0.0
 10
128.5134434372342
 20
210.1889504288772
 30
0.0
 10
128.1509283031016
 20
210.1790359142273
 30
0.0
 10
127.4259019579285
 20
210.166344808321
 30
0.0
 10
126.7008795371633
 20
210.1607940196157
 30
0.0
 10
125.9758631859304
 20
210.1662865234345
 30
0.0
 10
125.2508488497059
 20
210.1754452615281
 30
0.0
 10
124.8883426872514
 20
210.1818543883938
 30
0.0
 10
124.1633312551251
 20
210.1962970272932
 30
0.0
 10
123.8008259815892
 20
210.2043235090533
 30
0.0
 10
123.0758151871085
 20
210.2199263208998
 30
0.0
 10
122.7133096604461
 20
210.2274922481707
 30
0.0
 10
121.9882973470459
 20
210.2403314414017
 30
0.0
 10
121.6257905542217
 20
210.2455936334615
 30
0.0
 10
120.9007750076384
 20
210.2525501679752
 30
0.0
 10
120.175757492348
 20
210.2559247116365
 30
0.0
 10
119.450735597325
 20
210.2513304914838
 30
0.0
 10
118.7257118144371
 20
210.2433013700481
 30
0.0
 10
118.3631989832837
 20
210.2375770422888
 30
0.0
 10
117.6381721908658
 20
210.2240721906467
 30
0.0
 10
117.2756582357857
 20
210.2163029192413
 30
0.0
 10
116.5506302412863
 20
210.2006109241815
 30
0.0
 10
116.1881162073581
 20
210.1926981914696
 30
0.0
 10
115.4630892046501
 20
210.1788107247615
 30
0.0
 10
115.100576239406
 20
210.1728424238018
 30
0.0
 10
114.3755524883116
 20
210.1648711496057
 30
0.0
 10
113.6505309195621
 20
210.1608705721434
 30
0.0
 10
112.9255157165292
 20
210.1684521841543
 30
0.0
 10
112.2005045641045
 20
210.1834037300023
 30
0.0
 10
111.838001012638
 20
210.1945634540886
 30
0.0
 10
111.475499856807
 20
210.2100819498047
 30
0.0
  0
SPLINE
  5
EC
330
1F
100
AcDbEntity
  8
1
  6
Continuous
 62
     1
370
    13
100
AcDbSpline
210
0.0
220
0.0
230
1.0
 70
     8
 71
     3
 72
    47
 73
    43
 74
     0
 42
0.000000001
 43
0.0000000001
 40
0.0
 40
0.0
 40
0.0
 40
0.0
 40
0.1250000000000016
 40
0.1250000000000016
 40
0.2500000000000032
 40
0.2500000000000032
 40
0.2812500000000027
 40
0.2812500000000027
 40
0.3125000000000023
 40
0.3125000000000023
 40
0.3750000000000023
 40
0.3750000000000023
 40
0.4375000000000023
 40
0.4375000000000023
 40
0.5000000000000023
 40
0.5000000000000023
 40
0.5312500000000013
 40
0.5312500000000013
 40
0.5625000000000002
 40
0.5625000000000002
 40
0.6249999999999994
 40
0.6249999999999994
 40
0.6874999999999987
 40
0.6874999999999987
 40
0.7187499999999983
 40
0.7187499999999983
 40
0.7499999999999979
 40
0.7499999999999979
 40
0.7656249999999989
 40
0.7656249999999989
 40
0.7812499999999999
 40
0.8125000000000018
 40
0.8125000000000018
 40
0.8750000000000036
 40
0.8750000000000036
 40
0.8906250000000037
 40
0.8906250000000037
 40
0.9062500000000037
 40
0.9062500000000037
 40
0.9375000000000026
 40
0.9375000000000026
 40
1.0
 40
1.0
 40
1.0
 40
1.0
 10
131.404369272132
 20
208.4591151892522
 30
0.0
 10
131.3605320993188
 20
208.5787597159536
 30
0.0
 10
131.3083801343134
 20
208.696904247216
 30
0.0
 10
131.1879186716011
 20
208.9303418803271
 30
0.0
 10
131.1196217936971
 20
209.0456439776259
 30
0.0
 10
131.0235335783688
 20
209.1875760566826
 30
0.0
 10
131.0037426695094
 20
209.2158954549512
 30
0.0
 10
130.9632167769915
 20
209.2720522976574
 30
0.0
 10
130.9425035469131
 20
209.2998629643662
 30
0.0
 10
130.8789988145039
 20
209.3824625664328
 30
0.0
 10
130.8348463328788
 20
209.4364230955013
 30
0.0
 10
130.7427433374588
 20
209.5418901131488
 30
0.0
 10
130.6947940677471
 20
209.5933980423969
 30
0.0
 10
130.5947885041321
 20
209.6935749302592
 30
0.0
 10
130.5427344648598
 20
209.7422464098937
 30
0.0
 10
130.4611952635997
 20
209.8126844900382
 30
0.0
 10
130.4334152037265
 20
209.835751491392
 30
0.0
 10
130.3767041648656
 20
209.8808502308725
 30
0.0
 10
130.3479064080404
 20
209.9027770996395
 30
0.0
 10
130.2601211429546
 20
209.9665492948407
 30
0.0
 10
130.1997478394253
 20
210.0063975244389
 30
0.0
 10
130.074820660589
 20
210.0797695305907
 30
0.0
 10
130.010269152025
 20
210.1132978992902
 30
0.0
 10
129.9097786224844
 20
210.1577966180656
 30
0.0
 10
129.8757148269352
 20
210.1716329987888
 30
0.0
 10
129.8068872658863
 20
210.1969444495065
 30
0.0
 10
129.7720570665099
 20
210.2084498286996
 30
0.0
 10
129.7191554020868
 20
210.223853688483
 30
0.0
 10
129.701402857882
 20
210.2286803660527
 30
0.0
 10
129.6658791689552
 20
210.2376447496047
 30
0.0
 10
129.6124929225799
 20
210.2500805720137
 30
0.0
 10
129.558811335513
 20
210.25945272158
 30
0.0
 10
129.4510719314655
 20
210.274038222376
 30
0.0
 10
129.3787441038587
 20
210.2782104114029
 30
0.0
 10
129.2877638900099
 20
210.276316836808
 30
0.0
 10
129.2695393187778
 20
210.2755831725107
 30
0.0
 10
129.2330345090295
 20
210.2734038367445
 30
0.0
 10
129.2147206821973
 20
210.2719543296438
 30
0.0
 10
129.1600223555196
 20
210.2665712250706
 30
0.0
 10
129.1238543220109
 20
210.2616079925498
 30
0.0
 10
129.0162026728361
 20
210.2428607110093
 30
0.0
 10
128.9455721113767
 20
210.2252216430916
 30
0.0
 10
128.8759609132302
 20
210.2031258783529
 30
0.0
  0
SPLINE
  5
ED
330
1F
100
AcDbEntity
  8
1
  6
Continuous
 62
     1
370
    13
100
AcDbSpline
210
0.0
220
0.0
230
1.0
 70
     8
 71
     3
 72
    42
 73
    38
 74
     0
 42
0.000000001
 43
0.0000000001
 40
0.0
 40
0.0
 40
0.0
 40
0.0
 40
0.0625000000000006
 40
0.0625000000000006
 40
0.1250000000000012
 40
0.1250000000000012
 40
0.1562500000000008
 40
0.1562500000000008
 40
0.1875000000000004
 40
0.1875000000000004
 40
0.2500000000000001
 40
0.2500000000000001
 40
0.3124999999999997
 40
0.3124999999999997
 40
0.3437500000000001
 40
0.3437500000000001
 40
0.3750000000000006
 40
0.3750000000000006
 40
0.4062500000000011
 40
0.4062500000000011
 40
0.4375000000000015
 40
0.4375000000000015
 40
0.5000000000000029
 40
0.5000000000000029
 40
0.5625000000000042
 40
0.5625000000000042
 40
0.6250000000000057
 40
0.6250000000000057
 40
0.687500000000007
 40
0.687500000000007
 40
0.7187500000000063
 40
0.7187500000000063
 40
0.7500000000000056
 40
0.7500000000000056
 40
0.8750000000000028
 40
0.8750000000000028
 40
1.0
 40
1.0
 40
1.0
 40
1.0
 10
111.475499856807
 20
210.2100819498047
 30
0.0
 10
111.405821766527
 20
210.2326423056072
 30
0.0
 10
111.3354740940874
 20
210.2507070088256
 30
0.0
 10
111.1933585875751
 20
210.2768178129392
 30
0.0
 10
111.1215903014982
 20
210.2848624662968
 30
0.0
 10
111.0128462052458
 20
210.288698084939
 30
0.0
 10
110.9764166361808
 20
210.288605454331
 30
0.0
 10
110.9031954663585
 20
210.2855684580677
 30
0.0
 10
110.866240082769
 20
210.2825962105169
 30
0.0
 10
110.7567773924022
 20
210.2695301133517
 30
0.0
 10
110.6852704496866
 20
210.2553282825577
 30
0.0
 10
110.5450118881419
 20
210.2171308166858
 30
0.0
 10
110.4762597377149
 20
210.19313733413
 30
0.0
 10
110.3750853033671
 20
210.1505943949976
 30
0.0
 10
110.3416128118826
 20
210.1352817045359
 30
0.0
 10
110.2757688192441
 20
210.1028209756325
 30
0.0
 10
110.2433832388687
 20
210.0856741106262
 30
0.0
 10
110.1796162768002
 20
210.0497054684598
 30
0.0
 10
110.1482263184005
 20
210.0308781003661
 30
0.0
 10
110.086429084448
 20
209.9917041341915
 30
0.0
 10
110.0562060985688
 20
209.9714756787417
 30
0.0
 10
109.967396207322
 20
209.9090826169796
 30
0.0
 10
109.9106600707518
 20
209.8652203862354
 30
0.0
 10
109.8014806330319
 20
209.7738158800598
 30
0.0
 10
109.7490402417299
 20
209.7262698893151
 30
0.0
 10
109.6480449195841
 20
209.6280610769122
 30
0.0
 10
109.5994916241067
 20
209.5773961119565
 30
0.0
 10
109.5060286676266
 20
209.4733188103973
 30
0.0
 10
109.4611198833024
 20
209.4199052474858
 30
0.0
 10
109.396405237595
 20
209.3378924357224
 30
0.0
 10
109.3752582095627
 20
209.310210670882
 30
0.0
 10
109.3341652927475
 20
209.2546779596242
 30
0.0
 10
109.3141774730227
 20
209.2267757264497
 30
0.0
 10
109.2169469955494
 20
209.0866422128322
 30
0.0
 10
109.1477612111497
 20
208.9725858630383
 30
0.0
 10
109.0256499720064
 20
208.7412735248802
 30
0.0
 10
108.9727358197058
 20
208.6240087163531
 30
0.0
 10
108.9282466060755
 20
208.5050463642986
 30
0.0
  0
SPLINE
  5
EE
330
1F
100
AcDbEntity
  8
1
  6
Continuous
 62
     1
370
    13
100
AcDbSpline
210
0.0
220
0.0
230
1.0
 70
     8
 71
     3
 72
    26
 73
    22
 74
     0
 42
0.000000001
 43
0.0000000001
 40
0.0
 40
0.0
 40
0.0
 40
0.0
 40
0.1250000000000001
 40
0.1250000000000001
 40
0.2499999999999999
 40
0.2499999999999999
 40
0.3749999999999997
 40
0.3749999999999997
 40
0.4062499999999997
 40
0.4062499999999997
 40
0.4374999999999997
 40
0.4374999999999997
 40
0.4999999999999999
 40
0.4999999999999999
 40
0.625
 40
0.625
 40
0.75
 40
0.75
 40
0.875
 40
0.875
 40
1.0
 40
1.0
 40
1.0
 40
1.0
 10
111.6469791329736
 20
204.3670323250106
 30
0.0
 10
111.8252737157597
 20
204.2925316243313
 30
0.0
 10
112.0097827427738
 20
204.2206736964379
 30
0.0
 10
112.3907154710216
 20
204.0815262009997
 30
0.0
 10
112.5871632502834
 20
204.0142304261681
 30
0.0
 10
112.9916876549898
 20
203.8831472417754
 30
0.0
 10
113.1997693220505
 20
203.8193582490815
 30
0.0
 10
113.4668815174409
 20
203.740977641167
 30
0.0
 10
113.5206540402073
 20
203.7253686993951
 30
0.0
 10
113.628890690871
 20
203.6942622400583
 30
0.0
 10
113.6833981710495
 20
203.6787526267667
 30
0.0
 10
113.8474427883323
 20
203.6324962784857
 30
0.0
 10
113.9575976559307
 20
203.6019930664552
 30
0.0
 10
114.2902700176379
 20
203.5111769628617
 30
0.0
 10
114.5149949203099
 20
203.4515400404931
 30
0.0
 10
114.9694245093976
 20
203.3327177921886
 30
0.0
 10
115.1991247327876
 20
203.2735169124585
 30
0.0
 10
115.6626576254964
 20
203.1549291029203
 30
0.0
 10
115.896502081717
 20
203.0955231612098
 30
0.0
 10
116.367635347102
 20
202.9771239379107
 30
0.0
 10
116.6042482889413
 20
202.9182939324038
 30
0.0
 10
116.8419497233205
 20
202.8608576587236
 30
0.0
  0
SPLINE
  5
EF
330
1F
100
AcDbEntity
  8
1
  6
Continuous
 62
     1
370
    18
100
AcDbSpline
210
0.0
220
0.0
230
1.0
 70
     8
 71
     3
 72
    17
 73
    13
 74
     0
 42
0.000000001
 43
0.0000000001
 40
0.0
 40
0.0
 40
0.0
 40
0.0
 40
0.0321609351800695
 40
0.1593678850019319
 40
0.2826517960386898
 40
0.4020799094509594
 40
0.5180054417500782
 40
0.6306271449963272
 40
0.740026561850545
 40
0.8461892796876662
 40
0.9490122801392702
 40
1.0
 40
1.0
 40
1.0
 40
1.0
 10
105.4925908658103
 20
208.1236814603731
 30
0.0
 10
105.5264550510158
 20
208.1054161291341
 30
0.0
 10
105.6918307616087
 20
208.0113809433469
 30
0.0
 10
105.9585679128578
 20
207.8012036347326
 30
0.0
 10
106.2770682561578
 20
207.4944300015792
 30
0.0
 10
106.5446353203665
 20
207.1583547011468
 30
0.0
 10
106.7636472933145
 20
206.8041721615472
 30
0.0
 10
106.9344736827552
 20
206.43758979262
 30
0.0
 10
107.0593150757613
 20
206.0651477510997
 30
0.0
 10
107.1384914320855
 20
205.6927944924003
 30
0.0
 10
107.1744490675851
 20
205.3834005039154
 30
0.0
 10
107.1743925728537
 20
205.1998124688811
 30
0.0
 10
107.1724188980242
 20
205.1388155933641
 30
0.0
  0
SPLINE
  5
F0
330
1F
100
AcDbEntity
  8
1
  6
Continuous
 62
     1
370
    18
100
AcDbSpline
210
0.0
220
0.0
230
1.0
 70
     8
 71
     3
 72
    17
 73
    13
 74
     0
 42
0.000000001
 43
0.0000000001
 40
0.0
 40
0.0
 40
0.0
 40
0.0
 40
0.039853948725236
 40
0.1506541441023513
 40
0.2633200312297221
 40
0.3771976539908938
 40
0.4918747090902822
 40
0.6070799625571335
 40
0.7226253740639386
 40
0.8480293678658437
 40
0.9695883518375308
 40
1.0
 40
1.0
 40
1.0
 40
1.0
 10
133.1819711388274
 20
205.0374687538541
 30
0.0
 10
133.1798644980149
 20
205.0854011053565
 30
0.0
 10
133.1768134926314
 20
205.2662937476275
 30
0.0
 10
133.2133174150907
 20
205.5819239678524
 30
0.0
 10
133.2975257973827
 20
205.9788214163104
 30
0.0
 10
133.4312592009931
 20
206.3674813676705
 30
0.0
 10
133.6103795936346
 20
206.7406065929108
 30
0.0
 10
133.8337015921209
 20
207.0914378058655
 30
0.0
 10
134.1047388109342
 20
207.4241168607484
 30
0.0
 10
134.4222970149523
 20
207.72288225486
 30
0.0
 10
134.687465956166
 20
207.9278948701492
 30
0.0
 10
134.8469215023836
 20
208.0166917285943
 30
0.0
 10
134.8792794519313
 20
208.0337963337441
 30
0.0
  0
SPLINE
  5
F1
330
1F
100
AcDbEntity
  8
1
  6
Continuous
 62
     1
370
    13
100
AcDbSpline
210
0.0
220
0.0
230
1.0
 70
     8
 71
     3
 72
    29
 73
    25
 74
     0
 42
0.000000001
 43
0.0000000001
 40
0.0
 40
0.0
 40
0.0
 40
0.0
 40
0.1250000000000006
 40
0.1250000000000006
 40
0.2500000000000011
 40
0.2500000000000011
 40
0.3750000000000017
 40
0.3750000000000017
 40
0.4375000000000022
 40
0.4375000000000022
 40
0.4687500000000024
 40
0.4687500000000024
 40
0.5000000000000027
 40
0.5000000000000027
 40
0.6250000000000027
 40
0.6250000000000027
 40
0.7500000000000027
 40
0.7500000000000027
 40
0.8125000000000021
 40
0.8437500000000019
 40
0.8437500000000019
 40
0.8750000000000016
 40
0.8750000000000016
 40
1.0
 40
1.0
 40
1.0
 40
1.0
 10
250.9303559756522
 20
202.8608576587237
 30
0.0000000000000002
 10
250.965474153399
 20
202.9182173490434
 30
0.0000000000000002
 10
251.0049333853137
 20
202.9768917160685
 30
0.0000000000000002
 10
251.0948943972777
 20
203.0947846742523
 30
0.0000000000000002
 10
251.1454128141073
 20
203.1540097202396
 30
0.0000000000000002
 10
251.260107244779
 20
203.2724451116715
 30
0.0000000000000002
 10
251.3242928737088
 20
203.3316685116248
 30
0.0000000000000002
 10
251.4326320860447
 20
203.4209916915867
 30
0.0000000000000002
 10
251.4707529197799
 20
203.4508556459506
 30
0.0000000000000002
 10
251.531147177455
 20
203.4959057779695
 30
0.0000000000000002
 10
251.5518296520364
 20
203.5109762382044
 30
0.0000000000000002
 10
251.5942027017859
 20
203.5411597712728
 30
0.0000000000000002
 10
251.6158922078159
 20
203.5562727529604
 30
0.0000000000000002
 10
251.7268882328881
 20
203.6319995061022
 30
0.0000000000000002
 10
251.8238561036462
 20
203.69309693914
 30
0.0000000000000002
 10
252.0347077384918
 20
203.8178308115944
 30
0.0000000000000002
 10
252.148582211517
 20
203.8814746971745
 30
0.0000000000000002
 10
252.3323094842447
 20
203.9799113254547
 30
0.0000000000000002
 10
252.4274004002434
 20
204.0298700657999
 30
0.0000000000000002
 10
252.5273764174204
 20
204.0811129250256
 30
0.0000000000000003
 10
252.595118554689
 20
204.115577585614
 30
0.0000000000000003
 10
252.6295540637597
 20
204.1329706833364
 30
0.0000000000000003
 10
252.8040662577658
 20
204.2205304761608
 30
-0.0000000000000006
 10
252.9513522644531
 20
204.2926053924064
 30
-0.0000000000000006
 10
253.1062258678319
 20
204.3670323250106
 30
-0.0000000000000006
  0
SPLINE
  5
F2
330
1F
100
AcDbEntity
  8
1
  6
Continuous
 62
     1
370
    13
100
AcDbSpline
210
0.0
220
0.0
230
1.0
 70
     8
 71
     3
 72
    46
 73
    42
 74
     0
 42
0.000000001
 43
0.0000000001
 40
0.0
 40
0.0
 40
0.0
 40
0.0
 40
0.1249999999999948
 40
0.1249999999999948
 40
0.2499999999999896
 40
0.2499999999999896
 40
0.2812499999999897
 40
0.2812499999999897
 40
0.3124999999999897
 40
0.3124999999999897
 40
0.3749999999999897
 40
0.3749999999999897
 40
0.4374999999999898
 40
0.4374999999999898
 40
0.4999999999999899
 40
0.4999999999999899
 40
0.5312499999999896
 40
0.5312499999999896
 40
0.5624999999999893
 40
0.5624999999999893
 40
0.6249999999999899
 40
0.6249999999999899
 40
0.6874999999999906
 40
0.6874999999999906
 40
0.7187499999999915
 40
0.7187499999999915
 40
0.7499999999999923
 40
0.7499999999999923
 40
0.7812499999999933
 40
0.7812499999999933
 40
0.8124999999999942
 40
0.8124999999999942
 40
0.8749999999999962
 40
0.8749999999999962
 40
0.8906249999999967
 40
0.8906249999999967
 40
0.9062499999999971
 40
0.9062499999999971
 40
0.9374999999999978
 40
0.9374999999999978
 40
1.0
 40
1.0
 40
1.0
 40
1.0
 10
256.3997472460408
 20
208.5050463642986
 30
-0.0000000000000004
 10
256.3231310364677
 20
208.6237322605789
 30
-0.0000000000000004
 10
256.2518312921582
 20
208.740856941468
 30
-0.0000000000000004
 10
256.1196871864641
 20
208.9721339815422
 30
-0.0000000000000004
 10
256.0588471335458
 20
209.0862957282371
 30
-0.0000000000000004
 10
255.9891797701218
 20
209.2267065349754
 30
-0.0000000000000004
 10
255.9755422411926
 20
209.2547198524972
 30
-0.0000000000000004
 10
255.9490368416262
 20
209.3101972165822
 30
-0.0000000000000004
 10
255.9361670621083
 20
209.3376627255263
 30
-0.0000000000000004
 10
255.89866618699
 20
209.4192094497637
 30
-0.0000000000000004
 10
255.8751440866686
 20
209.4724449548823
 30
-0.0000000000000004
 10
255.8308348721911
 20
209.5764073325109
 30
-0.0000000000000004
 10
255.8100484764817
 20
209.6271356698148
 30
-0.0000000000000004
 10
255.7709644089423
 20
209.7256869263832
 30
-0.0000000000000004
 10
255.752667805357
 20
209.7735123995819
 30
-0.0000000000000004
 10
255.726866218779
 20
209.8426194695328
 30
-0.0000000000000004
 10
255.7185265059366
 20
209.8652492723092
 30
-0.0000000000000004
 10
255.7024067212233
 20
209.9093650947893
 30
-0.0000000000000004
 10
255.6946483798298
 20
209.9307904790462
 30
-0.0000000000000004
 10
255.6721787020885
 20
209.9930276332487
 30
-0.0000000000000004
 10
255.6582759477228
 20
210.0318114466635
 30
-0.0000000000000004
 10
255.632032739742
 20
210.1029742603006
 30
-0.0000000000000004
 10
255.6196942320441
 20
210.1353574798846
 30
-0.0000000000000004
 10
255.6018218736285
 20
210.1780889094884
 30
-0.0000000000000004
 10
255.595980482846
 20
210.1913233092674
 30
-0.0000000000000004
 10
255.5845003643408
 20
210.215435137417
 30
-0.0000000000000004
 10
255.5788503318129
 20
210.2263400284816
 30
-0.0000000000000004
 10
255.5676178301841
 20
210.2456838842274
 30
-0.0000000000000004
 10
255.5620589029329
 20
210.2540758900621
 30
-0.0000000000000005
 10
255.5510098847111
 20
210.2681325898466
 30
-0.0000000000000005
 10
255.5455092970007
 20
210.2738155995874
 30
-0.0000000000000005
 10
255.5289190605626
 20
210.2867674361646
 30
-0.0000000000000005
 10
255.5177362679594
 20
210.289932693235
 30
-0.0000000000000005
 10
255.5031339173349
 20
210.2869265675049
 30
-0.0000000000000005
 10
255.5001826170376
 20
210.2859776961095
 30
-0.0000000000000005
 10
255.4942081063985
 20
210.283383606649
 30
-0.0000000000000005
 10
255.4911795078504
 20
210.2817345977892
 30
-0.0000000000000005
 10
255.4820159869123
 20
210.2757735731237
 30
-0.0000000000000005
 10
255.4758096184806
 20
210.2704579596854
 30
-0.0000000000000005
 10
255.4568202530581
 20
210.2507465586203
 30
-0.0000000000000005
 10
255.4436607879309
 20
210.2325888521122
 30
-0.0000000000000005
 10
255.4298810518243
 20
210.2100819498047
 30
-0.0000000000000005
  0
SPLINE
  5
F3
330
1F
100
AcDbEntity
  8
1
  6
Continuous
 62
     1
370
    13
100
AcDbSpline
210
0.0
220
0.0
230
1.0
 70
     8
 71
     3
 72
    42
 73
    38
 74
     0
 42
0.000000001
 43
0.0000000001
 40
0.0
 40
0.0
 40
0.0
 40
0.0
 40
0.0625000000000006
 40
0.0625000000000006
 40
0.1250000000000012
 40
0.1250000000000012
 40
0.1562500000000008
 40
0.1562500000000008
 40
0.1875000000000004
 40
0.1875000000000004
 40
0.2500000000000001
 40
0.2500000000000001
 40
0.3124999999999997
 40
0.3124999999999997
 40
0.3437500000000001
 40
0.3437500000000001
 40
0.3750000000000006
 40
0.3750000000000006
 40
0.4062500000000011
 40
0.4062500000000011
 40
0.4375000000000015
 40
0.4375000000000015
 40
0.5000000000000029
 40
0.5000000000000029
 40
0.5625000000000042
 40
0.5625000000000042
 40
0.6250000000000057
 40
0.6250000000000057
 40
0.687500000000007
 40
0.687500000000007
 40
0.7187500000000063
 40
0.7187500000000063
 40
0.7500000000000056
 40
0.7500000000000056
 40
0.8750000000000028
 40
0.8750000000000028
 40
1.0
 40
1.0
 40
1.0
 40
1.0
 10
270.4029496824824
 20
210.2100819498048
 30
0.0000000000000005
 10
270.3891372197462
 20
210.2326423056073
 30
0.0000000000000005
 10
270.37602116519
 20
210.2507070088256
 30
0.0000000000000005
 10
270.3509213816242
 20
210.2768178129392
 30
0.0000000000000005
 10
270.3389392545104
 20
210.2848624662969
 30
0.0000000000000005
 10
270.3214584641421
 20
210.288698084939
 30
0.0000000000000005
 10
270.3157117416137
 20
210.2886054543311
 30
0.0000000000000005
 10
270.3042946354634
 20
210.2855684580677
 30
0.0000000000000005
 10
270.2985991996722
 20
210.2825962105169
 30
0.0000000000000005
 10
270.2817721550788
 20
210.2695301133517
 30
0.0000000000000005
 10
270.2708335751137
 20
210.2553282825577
 30
0.0000000000000005
 10
270.2486126645317
 20
210.2171308166859
 30
0.0000000000000004
 10
270.2373299537153
 20
210.19313733413
 30
0.0000000000000004
 10
270.2194964187524
 20
210.1505943949977
 30
0.0000000000000004
 10
270.2133861724171
 20
210.1352817045359
 30
0.0000000000000004
 10
270.2008481930138
 20
210.1028209756325
 30
0.0000000000000004
 10
270.1944192619629
 20
210.0856741106263
 30
0.0000000000000004
 10
270.18115254461
 20
210.0497054684599
 30
0.0000000000000004
 10
270.1743128360613
 20
210.0308781003662
 30
0.0000000000000004
 10
270.1601511987538
 20
209.9917041341916
 30
0.0000000000000004
 10
270.1528716832181
 20
209.9714756787417
 30
0.0000000000000004
 10
270.1303438135179
 20
209.9090826169797
 30
0.0000000000000004
 10
270.1144031271542
 20
209.8652203862354
 30
0.0000000000000004
 10
270.0802758265501
 20
209.7738158800598
 30
0.0000000000000004
 10
270.0620907237169
 20
209.7262698893152
 30
0.0000000000000004
 10
270.0231559545896
 20
209.6280610769122
 30
0.0000000000000004
 10
270.0024072750205
 20
209.5773961119565
 30
0.0000000000000004
 10
269.9580689202453
 20
209.4733188103973
 30
0.0000000000000004
 10
269.9344799661887
 20
209.4199052474858
 30
0.0000000000000004
 10
269.8967715637302
 20
209.3378924357224
 30
0.0000000000000004
 10
269.8838004070109
 20
209.310210670882
 30
0.0000000000000004
 10
269.8572683916531
 20
209.2546779596242
 30
0.0000000000000004
 10
269.8436845239552
 20
209.2267757264497
 30
0.0000000000000004
 10
269.7741585901421
 20
209.0866422128322
 30
0.0000000000000004
 10
269.713390802801
 20
208.9725858630383
 30
0.0000000000000004
 10
269.5812483585396
 20
208.7412735248803
 30
0.0000000000000004
 10
269.5098781604382
 20
208.6240087163532
 30
0.0000000000000004
 10
269.433083488266
 20
208.5050463642986
 30
0.0000000000000004
  0
SPLINE
  5
F4
330
1F
100
AcDbEntity
  8
1
  6
Continuous
 62
     1
370
    13
100
AcDbSpline
210
0.0
220
0.0
230
1.0
 70
     8
 71
     3
 72
    61
 73
    57
 74
     0
 42
0.000000001
 43
0.0000000001
 40
0.0
 40
0.0
 40
0.0
 40
0.0
 40
0.0624999999999992
 40
0.0624999999999992
 40
0.1249999999999983
 40
0.1249999999999983
 40
0.1874999999999974
 40
0.1874999999999974
 40
0.1953124999999973
 40
0.1953124999999973
 40
0.2031249999999971
 40
0.218749999999997
 40
0.2499999999999971
 40
0.2499999999999971
 40
0.3124999999999971
 40
0.3124999999999971
 40
0.3437499999999971
 40
0.3437499999999971
 40
0.3593749999999971
 40
0.367187499999997
 40
0.367187499999997
 40
0.3749999999999969
 40
0.3749999999999969
 40
0.4374999999999967
 40
0.4374999999999967
 40
0.4999999999999964
 40
0.4999999999999964
 40
0.5312499999999962
 40
0.5312499999999962
 40
0.5468749999999961
 40
0.5468749999999961
 40
0.5546874999999961
 40
0.5546874999999961
 40
0.5624999999999961
 40
0.5624999999999961
 40
0.6249999999999961
 40
0.6249999999999961
 40
0.687499999999996
 40
0.687499999999996
 40
0.7187499999999958
 40
0.7187499999999958
 40
0.7343749999999958
 40
0.7343749999999958
 40
0.7499999999999958
 40
0.7499999999999958
 40
0.8124999999999968
 40
0.8124999999999968
 40
0.8749999999999977
 40
0.8749999999999977
 40
0.9062499999999983
 40
0.9062499999999983
 40
0.9218749999999989
 40
0.9218749999999989
 40
0.9374999999999993
 40
0.9374999999999993
 40
1.0
 40
1.0
 40
1.0
 40
1.0
 10
269.433083488266
 20
208.5050463642986
 30
0.0000000000000004
 10
269.2545808859966
 20
208.2459677605738
 30
0.0000000000000004
 10
269.0632928498243
 20
208.0005220508825
 30
0.0000000000000004
 10
268.65449993817
 20
207.535803382709
 30
0.0000000000000004
 10
268.4370021224493
 20
207.3165265725413
 30
0.0000000000000003
 10
267.9742922718309
 20
206.9039451941907
 30
0.0000000000000003
 10
267.7290946310748
 20
206.7106310865871
 30
0.0000000000000003
 10
267.4361614095583
 20
206.5082580273668
 30
0.0000000000000003
 10
267.4033560347557
 20
206.4859706964115
 30
0.0000000000000003
 10
267.3375030154796
 20
206.4419791989698
 30
0.0000000000000003
 10
267.2382814202795
 20
206.3768111657162
 30
0.0000000000000003
 10
267.0036730926652
 20
206.2304457168817
 30
0.0000000000000003
 10
266.7972865392805
 20
206.1146216853135
 30
0.0000000000000002
 10
266.3774094377562
 20
205.8956134005461
 30
0.0000000000000002
 10
266.0880453617924
 20
205.7664080675117
 30
0.0000000000000002
 10
265.6392106879928
 20
205.5979205600362
 30
0.0000000000000002
 10
265.4871281967474
 20
205.5459909766516
 30
0.0000000000000002
 10
265.2551567573196
 20
205.4745877579076
 30
0.0000000000000001
 10
265.1382083782555
 20
205.4405103515615
 30
0.0000000000000001
 10
265.0197822514131
 20
205.4089095951716
 30
0.0000000000000001
 10
264.940498802777
 20
205.3883983130677
 30
0.0000000000000001
 10
264.9006738689055
 20
205.378417247228
 30
0.0000000000000001
 10
264.5423341621595
 20
205.2914900253849
 30
0.0000000000000001
 10
264.2216984295225
 20
205.2340427986215
 30
0.0000000000000001
 10
263.5763189707113
 20
205.1570903097016
 30
0.0
 10
263.2515751277281
 20
205.1375883675734
 30
0.0
 10
262.7613284727246
 20
205.1370974511648
 30
0.0
 10
262.5973897140868
 20
205.1417434153361
 30
0.0
 10
262.3506771010832
 20
205.1561172798156
 30
0.0
 10
262.2683053856471
 20
205.1621438371232
 30
0.0
 10
262.1445431440977
 20
205.1730710636209
 30
0.0
 10
262.1033028630582
 20
205.1770245837209
 30
0.0
 10
262.0211251560125
 20
205.1855234695067
 30
-0.0000000000000001
 10
261.9801471135719
 20
205.1900723361905
 30
-0.0000000000000001
 10
261.6123312213707
 20
205.2336811975632
 30
-0.0000000000000001
 10
261.2923704461658
 20
205.291333652942
 30
-0.0000000000000001
 10
260.6656006564007
 20
205.4427877293017
 30
-0.0000000000000001
 10
260.3587957309081
 20
205.536598510801
 30
-0.0000000000000002
 10
259.9082917429208
 20
205.70471216296
 30
-0.0000000000000002
 10
259.7597452517712
 20
205.7653308765256
 30
-0.0000000000000002
 10
259.539374738171
 20
205.8632980522887
 30
-0.0000000000000002
 10
259.4662074256061
 20
205.8971891985753
 30
-0.0000000000000002
 10
259.3217904208377
 20
205.9668159357095
 30
-0.0000000000000002
 10
259.2504336420336
 20
206.0025945596536
 30
-0.0000000000000002
 10
258.8977987933088
 20
206.1862411732486
 30
-0.0000000000000002
 10
258.6289196453235
 20
206.3483098689262
 30
-0.0000000000000003
 10
258.1156559873842
 20
206.7019098744314
 30
-0.0000000000000003
 10
257.8712817496336
 20
206.8934492524354
 30
-0.0000000000000003
 10
257.5224086328993
 20
207.203257865194
 30
-0.0000000000000003
 10
257.4090726992534
 20
207.3102871543791
 30
-0.0000000000000003
 10
257.2434733320746
 20
207.4766067398255
 30
-0.0000000000000003
 10
257.1889475245363
 20
207.5330768214316
 30
-0.0000000000000004
 10
257.0818271452225
 20
207.6474699610096
 30
-0.0000000000000004
 10
257.0291968281185
 20
207.7054247376244
 30
-0.0000000000000004
 10
256.7706070170717
 20
207.9989814791124
 30
-0.0000000000000004
 10
256.578295098178
 20
208.2459020849342
 30
-0.0000000000000004
 10
256.3997472460408
 20
208.5050463642986
 30
-0.0000000000000004
  0
SPLINE
  5
F5
330
1F
100
AcDbEntity
  8
1
  6
Continuous
 62
     1
370
    13
100
AcDbSpline
210
0.0
220
0.0
230
1.0
 70
     8
 71
     3
 72
    26
 73
    22
 74
     0
 42
0.000000001
 43
0.0000000001
 40
0.0
 40
0.0
 40
0.0
 40
0.0
 40
0.1250000000000001
 40
0.1250000000000001
 40
0.2499999999999999
 40
0.2499999999999999
 40
0.3749999999999997
 40
0.3749999999999997
 40
0.4062499999999997
 40
0.4062499999999997
 40
0.4374999999999997
 40
0.4374999999999997
 40
0.4999999999999999
 40
0.4999999999999999
 40
0.625
 40
0.625
 40
0.75
 40
0.75
 40
0.875
 40
0.875
 40
1.0
 40
1.0
 40
1.0
 40
1.0
 10
272.7266048664748
 20
204.3670323250106
 30
0.0000000000000006
 10
272.8816319724527
 20
204.2925316243313
 30
0.0000000000000006
 10
273.0284574996042
 20
204.2206736964379
 30
0.0000000000000006
 10
273.3058301107574
 20
204.0815262009997
 30
-0.0000000000000003
 10
273.4363859864202
 20
204.0142304261681
 30
-0.0000000000000002
 10
273.6812051713873
 20
203.8831472417754
 30
-0.0000000000000002
 10
273.7954597790882
 20
203.8193582490815
 30
-0.0000000000000002
 10
273.9280558673971
 20
203.740977641167
 30
-0.0000000000000002
 10
273.9540643171595
 20
203.7253686993951
 30
-0.0000000000000002
 10
274.005060937179
 20
203.6942622400583
 30
-0.0000000000000002
 10
274.0300678150859
 20
203.6787526267667
 30
-0.0000000000000002
 10
274.1033420498117
 20
203.6324962784857
 30
-0.0000000000000002
 10
274.149911880477
 20
203.6019930664552
 30
-0.0000000000000002
 10
274.2830619725595
 20
203.5111769628617
 30
-0.0000000000000002
 10
274.3630690358912
 20
203.4515400404931
 30
-0.0000000000000002
 10
274.5073418319261
 20
203.3327177921886
 30
-0.0000000000000002
 10
274.5716087924445
 20
203.2735169124586
 30
-0.0000000000000002
 10
274.6866030505832
 20
203.1549291029204
 30
-0.0000000000000002
 10
274.7373435721111
 20
203.0955231612098
 30
-0.0000000000000002
 10
274.8277491528307
 20
202.9771239379107
 30
-0.0000000000000002
 10
274.8673096931361
 20
202.9182939324038
 30
-0.0000000000000002
 10
274.9024747586545
 20
202.8608576587237
 30
-0.0000000000000002
  0
SPLINE
  5
F6
330
1F
100
AcDbEntity
  8
1
  6
Continuous
 62
     1
370
    13
100
AcDbSpline
210
0.0
220
0.0
230
1.0
 70
     8
 71
     3
 72
    58
 73
    54
 74
     0
 42
0.000000001
 43
0.0000000001
 40
0.0
 40
0.0
 40
0.0
 40
0.0
 40
0.0624999999999996
 40
0.0624999999999996
 40
0.078125
 40
0.078125
 40
0.0937500000000004
 40
0.0937500000000004
 40
0.125000000000001
 40
0.125000000000001
 40
0.1875000000000017
 40
0.1875000000000017
 40
0.2500000000000025
 40
0.2500000000000025
 40
0.2656250000000027
 40
0.2656250000000027
 40
0.2812500000000028
 40
0.3125000000000032
 40
0.3125000000000032
 40
0.3750000000000034
 40
0.3750000000000034
 40
0.4375000000000038
 40
0.4375000000000038
 40
0.4453125000000038
 40
0.4453125000000038
 40
0.4531250000000037
 40
0.4531250000000037
 40
0.4687500000000037
 40
0.5000000000000037
 40
0.5000000000000037
 40
0.5625000000000034
 40
0.5625000000000034
 40
0.6250000000000033
 40
0.6250000000000033
 40
0.6328125000000032
 40
0.6406250000000032
 40
0.6406250000000032
 40
0.6562500000000032
 40
0.6875000000000031
 40
0.6875000000000031
 40
0.7500000000000027
 40
0.7500000000000027
 40
0.8125000000000023
 40
0.8125000000000023
 40
0.8203125000000023
 40
0.8203125000000023
 40
0.8281250000000024
 40
0.8437500000000021
 40
0.8750000000000018
 40
0.8750000000000018
 40
0.9375000000000009
 40
0.9375000000000009
 40
1.0
 40
1.0
 40
1.0
 40
1.0
 10
257.4023115723658
 20
210.3551885990554
 30
-0.0000000000000003
 10
257.5665371371136
 20
210.1644737117238
 30
-0.0000000000000003
 10
257.7422736908848
 20
209.9874379168653
 30
-0.0000000000000003
 10
257.976239405834
 20
209.781252759252
 30
-0.0000000000000003
 10
258.0237494788037
 20
209.7407748186551
 30
-0.0000000000000003
 10
258.1202098873995
 20
209.661301277092
 30
-0.0000000000000003
 10
258.1690280139447
 20
209.6224159562587
 30
-0.0000000000000003
 10
258.3169822556787
 20
209.5084074427918
 30
-0.0000000000000003
 10
258.4177208353885
 20
209.4358419630185
 30
-0.0000000000000003
 10
258.7261394329282
 20
209.2277473581024
 30
-0.0000000000000003
 10
258.9400027824568
 20
209.1017734371439
 30
-0.0000000000000002
 10
259.3841744215896
 20
208.8728169430193
 30
-0.0000000000000002
 10
259.6144818330554
 20
208.7698432336232
 30
-0.0000000000000002
 10
259.9130087810906
 20
208.6548108573082
 30
-0.0000000000000002
 10
259.9732769244977
 20
208.63248147686
 30
-0.0000000000000002
 10
260.0947757431192
 20
208.5892355625746
 30
-0.0000000000000002
 10
260.2777678513127
 20
208.5267339142907
 30
-0.0000000000000002
 10
260.4629678375782
 20
208.4711361805101
 30
-0.0000000000000002
 10
260.8362742994211
 20
208.3687561425686
 30
-0.0000000000000001
 10
261.0890121474317
 20
208.3122177246834
 30
-0.0000000000000001
 10
261.6022326252175
 20
208.2215274242093
 30
-0.0000000000000001
 10
261.8627144335436
 20
208.1873768906201
 30
-0.0000000000000001
 10
262.1602770076839
 20
208.161664938233
 30
0.0
 10
262.1934024960099
 20
208.1589853511309
 30
0.0
 10
262.2597803502349
 20
208.1539825684544
 30
0.0
 10
262.2930544031969
 20
208.151658195327
 30
0.0
 10
262.3927594947708
 20
208.145241425206
 30
0.0
 10
262.591938506983
 20
208.1346132750875
 30
0.0
 10
262.7904331601874
 20
208.1304923066064
 30
0.0
 10
263.1865262700724
 20
208.1307522998064
 30
0.0
 10
263.4493959706448
 20
208.1422243483998
 30
0.0
 10
263.9727728094973
 20
208.1877676190604
 30
0.0000000000000001
 10
264.2332800714586
 20
208.2218349084049
 30
0.0000000000000001
 10
264.5249872068767
 20
208.2735711740137
 30
0.0000000000000001
 10
264.5897731716772
 20
208.285441980256
 30
0.0000000000000001
 10
264.6544822816315
 20
208.2980704266248
 30
0.0000000000000001
 10
264.7511737323753
 20
208.3175211707719
 30
0.0000000000000001
 10
264.9433844670878
 20
208.3585144144211
 30
0.0000000000000001
 10
265.1321314760382
 20
208.4057566560873
 30
0.0000000000000001
 10
265.5051046512712
 20
208.5086141417299
 30
0.0000000000000002
 10
265.7477390603448
 20
208.5883088599532
 30
0.0000000000000002
 10
266.2211575187812
 20
208.7711222622181
 30
0.0000000000000002
 10
266.451942314215
 20
208.8742294393455
 30
0.0000000000000002
 10
266.7047619578963
 20
209.0048707347275
 30
0.0000000000000002
 10
266.732780527167
 20
209.0196031051684
 30
0.0000000000000002
 10
266.7884845145529
 20
209.0494072336429
 30
0.0000000000000002
 10
266.8715516158792
 20
209.0946266909406
 30
0.0000000000000002
 10
267.0619755592513
 20
209.2037500687814
 30
0.0000000000000003
 10
267.2194397045055
 20
209.3035476835628
 30
0.0000000000000003
 10
267.5268117963598
 20
209.5117944255411
 30
0.0000000000000003
 10
267.7216758784874
 20
209.6621141560391
 30
0.0000000000000003
 10
268.0913385839133
 20
209.9883735000987
 30
0.0000000000000003
 10
268.2661405494214
 20
210.1642959775897
 30
0.0000000000000003
 10
268.430519161941
 20
210.3551885990554
 30
0.0000000000000003
  0
SPLINE
  5
F7
330
1F
100
AcDbEntity
  8
1
  6
Continuous
 62
     1
370
    13
100
AcDbSpline
210
0.0
220
0.0
230
1.0
 70
     8
 71
     3
 72
    42
 73
    38
 74
     0
 42
0.000000001
 43
0.0000000001
 40
0.0
 40
0.0
 40
0.0
 40
0.0
 40
0.062500000000001
 40
0.1250000000000019
 40
0.1875000000000029
 40
0.1875000000000029
 40
0.2031250000000029
 40
0.2031250000000029
 40
0.2187500000000029
 40
0.2187500000000029
 40
0.2500000000000026
 40
0.2500000000000026
 40
0.2812500000000023
 40
0.2812500000000023
 40
0.312500000000002
 40
0.312500000000002
 40
0.3750000000000024
 40
0.3750000000000024
 40
0.5000000000000034
 40
0.5000000000000034
 40
0.5156250000000028
 40
0.5156250000000028
 40
0.5312500000000021
 40
0.5312500000000021
 40
0.5625000000000016
 40
0.5625000000000016
 40
0.6250000000000014
 40
0.6250000000000014
 40
0.7500000000000022
 40
0.7500000000000022
 40
0.7812500000000019
 40
0.7812500000000019
 40
0.8125000000000014
 40
0.8125000000000014
 40
0.8750000000000007
 40
0.8750000000000007
 40
1.0
 40
1.0
 40
1.0
 40
1.0
 10
268.430519161941
 20
210.3551885990554
 30
0.0000000000000003
 10
268.5030485168501
 20
210.4394168236375
 30
0.0000000000000003
 10
268.6426872194845
 20
210.6049956690982
 30
0.0000000000000004
 10
268.8363218670881
 20
210.8448233119079
 30
0.0000000000000004
 10
268.95502130849
 20
210.9988302920389
 30
0.0000000000000004
 10
269.0259764858909
 20
211.093106271768
 30
0.0000000000000004
 10
269.0400057977616
 20
211.1118621944308
 30
0.0000000000000004
 10
269.067740866527
 20
211.1491704722326
 30
0.0000000000000004
 10
269.0814571822139
 20
211.1677373341014
 30
0.0000000000000004
 10
269.1219920971883
 20
211.2229486133751
 30
0.0000000000000004
 10
269.1482257653579
 20
211.2591422496592
 30
0.0000000000000004
 10
269.1991522453691
 20
211.3302784539362
 30
0.0000000000000004
 10
269.2238677139853
 20
211.3652552018933
 30
0.0000000000000004
 10
269.2714256263353
 20
211.4333919934637
 30
0.0000000000000004
 10
269.2943173101441
 20
211.4666197944457
 30
0.0000000000000004
 10
269.3604655464216
 20
211.5638020602329
 30
0.0000000000000004
 10
269.4011984365508
 20
211.6252607804915
 30
0.0000000000000004
 10
269.5142362973368
 20
211.7996009378599
 30
0.0000000000000004
 10
269.5773997166236
 20
211.9025176489413
 30
0.0000000000000004
 10
269.6370534804548
 20
212.0021060511405
 30
0.0000000000000004
 10
269.6435228392413
 20
212.0129450348351
 30
0.0000000000000004
 10
269.6561513193066
 20
212.0341634720564
 30
0.0000000000000004
 10
269.6623141651106
 20
212.0445492409082
 30
0.0000000000000004
 10
269.680296725781
 20
212.074918899179
 30
0.0000000000000004
 10
269.6916327928187
 20
212.0941526162698
 30
0.0000000000000004
 10
269.7236396863668
 20
212.148494341823
 30
0.0000000000000004
 10
269.7423758413133
 20
212.1803508475201
 30
0.0000000000000004
 10
269.792129354839
 20
212.2632650129763
 30
0.0000000000000004
 10
269.81673670328
 20
212.3016853681018
 30
0.0000000000000004
 10
269.8403997155724
 20
212.3295720556343
 30
0.0000000000000004
 10
269.8447737600989
 20
212.3341408070437
 30
0.0000000000000004
 10
269.8528808744352
 20
212.341280136075
 30
0.0000000000000004
 10
269.8566189571107
 20
212.3438521690924
 30
0.0000000000000004
 10
269.866933609713
 20
212.3485840430496
 30
0.0000000000000004
 10
269.8726190936461
 20
212.3477772179858
 30
0.0000000000000004
 10
269.887016001887
 20
212.3343247513849
 30
0.0000000000000004
 10
269.8931208103476
 20
212.3106538052538
 30
0.0000000000000004
 10
269.8974246202174
 20
212.2743706143443
 30
0.0000000000000004
  0
SPLINE
  5
F8
330
1F
100
AcDbEntity
  8
1
  6
Continuous
 62
     1
370
    13
100
AcDbSpline
210
0.0
220
0.0
230
1.0
 70
     8
 71
     3
 72
    10
 73
     6
 74
     0
 42
0.000000001
 43
0.0000000001
 40
0.0
 40
0.0
 40
0.0
 40
0.0
 40
0.931968284252406
 40
0.931968284252406
 40
1.0
 40
1.0
 40
1.0
 40
1.0
 10
269.8974246202174
 20
212.2743706143443
 30
0.0000000000000004
 10
269.9106163186449
 20
212.1631582404356
 30
0.0000000000000004
 10
269.9159198147327
 20
212.0734588014064
 30
0.0000000000000004
 10
269.9164153962382
 20
211.9962686712988
 30
0.0000000000000004
 10
269.916423415915
 20
211.9911118493081
 30
0.0000000000000004
 10
269.9164070697699
 20
211.986047941389
 30
0.0000000000000004
  0
SPLINE
  5
F9
330
1F
100
AcDbEntity
  8
1
  6
Continuous
 62
     1
370
    13
100
AcDbSpline
210
0.0
220
0.0
230
1.0
 70
     8
 71
     3
 72
    16
 73
    12
 74
     0
 42
0.000000001
 43
0.0000000001
 40
0.0
 40
0.0
 40
0.0
 40
0.0
 40
0.0242429363491368
 40
0.0242429363491368
 40
0.2221251456200769
 40
0.2221251456200769
 40
0.4200073548910166
 40
0.4200073548910166
 40
0.6178895641619567
 40
0.6178895641619567
 40
1.0
 40
1.0
 40
1.0
 40
1.0
 10
269.8809641304814
 20
211.7264501360239
 30
0.0
 10
269.8811095096644
 20
211.7268449018522
 30
0.0
 10
269.8812655127744
 20
211.7272702948042
 30
0.0
 10
269.8827910120882
 20
211.7314500598869
 30
0.0
 10
269.8848471495
 20
211.7372276285323
 30
0.0
 10
269.8899043368216
 20
211.7534619879049
 30
0.0
 10
269.8929023415585
 20
211.7639228808845
 30
0.0
 10
269.8991583924372
 20
211.7903943401228
 30
0.0
 10
269.9024132824508
 20
211.8064090601738
 30
0.0
 10
269.9111334129238
 20
211.8629980604656
 30
0.0000000000000004
 10
269.9158221387752
 20
211.9125758348901
 30
0.0000000000000004
 10
269.9163632234674
 20
211.9783122679557
 30
0.0000000000000004
  0
SPLINE
  5
FA
330
1F
100
AcDbEntity
  8
1
  6
Continuous
 62
     1
370
    13
100
AcDbSpline
210
0.0
220
0.0
230
1.0
 70
     8
 71
     3
 72
    14
 73
    10
 74
     0
 42
0.000000001
 43
0.0000000001
 40
0.0
 40
0.0
 40
0.0
 40
0.0
 40
0.4363946801305045
 40
0.4363946801305045
 40
0.6605603438954987
 40
0.6605603438954987
 40
0.8847260076604929
 40
0.8847260076604929
 40
1.0
 40
1.0
 40
1.0
 40
1.0
 10
255.9164540412723
 20
211.9800735291237
 30
-0.0000000000000004
 10
255.9169248360786
 20
211.9135166711225
 30
-0.0000000000000004
 10
255.9216402496722
 20
211.863381737724
 30
-0.0000000000000004
 10
255.9304137121059
 20
211.8064265012839
 30
0.0
 10
255.9336722765335
 20
211.7903927948047
 30
0.0
 10
255.9399360052622
 20
211.7638924937464
 30
0.0
 10
255.9429379617966
 20
211.7534216742682
 30
0.0
 10
255.9467703825354
 20
211.7411238507958
 30
0.0
 10
255.9479465025229
 20
211.7375676566499
 30
0.0
 10
255.9489664082511
 20
211.7345931774102
 30
0.0
  0
SPLINE
  5
FB
330
1F
100
AcDbEntity
  8
1
  6
Continuous
 62
     1
370
    13
100
AcDbSpline
210
0.0
220
0.0
230
1.0
 70
     8
 71
     3
 72
    10
 73
     6
 74
     0
 42
0.000000001
 43
0.0000000001
 40
0.0
 40
0.0
 40
0.0
 40
0.0
 40
0.0940987170919437
 40
0.0940987170919437
 40
1.0
 40
1.0
 40
1.0
 40
1.0
 10
255.9164585217182
 20
211.9795100626616
 30
-0.0000000000000004
 10
255.9164055693066
 20
211.9866018395949
 30
-0.0000000000000004
 10
255.9164007761993
 20
211.9938807251521
 30
-0.0000000000000004
 10
255.9169024155126
 20
212.0732737273659
 30
-0.0000000000000004
 10
255.922195301819
 20
212.1629971015308
 30
-0.0000000000000004
 10
255.9354061140894
 20
212.2743706143443
 30
-0.0000000000000004
  0
SPLINE
  5
FC
330
1F
100
AcDbEntity
  8
1
  6
Continuous
 62
     1
370
    13
100
AcDbSpline
210
0.0
220
0.0
230
1.0
 70
     8
 71
     3
 72
    38
 73
    34
 74
     0
 42
0.000000001
 43
0.0000000001
 40
0.0
 40
0.0
 40
0.0
 40
0.0
 40
0.1250000000000029
 40
0.1250000000000029
 40
0.2500000000000058
 40
0.2500000000000058
 40
0.2812500000000067
 40
0.2812500000000067
 40
0.3125000000000077
 40
0.3750000000000102
 40
0.3750000000000102
 40
0.5000000000000157
 40
0.5000000000000157
 40
0.5156250000000165
 40
0.5156250000000165
 40
0.5312500000000175
 40
0.5312500000000175
 40
0.5625000000000177
 40
0.5625000000000177
 40
0.6250000000000163
 40
0.6250000000000163
 40
0.687500000000015
 40
0.687500000000015
 40
0.7500000000000137
 40
0.7500000000000137
 40
0.7656250000000122
 40
0.7656250000000122
 40
0.7812500000000108
 40
0.81250000000001
 40
0.81250000000001
 40
0.8750000000000067
 40
0.9375000000000033
 40
1.0
 40
1.0
 40
1.0
 40
1.0
 10
255.9354061140894
 20
212.2743706143443
 30
-0.0000000000000004
 10
255.9397125652174
 20
212.3106760723335
 30
-0.0000000000000004
 10
255.9458171486341
 20
212.3342565782199
 30
-0.0000000000000004
 10
255.9648957136616
 20
212.3522240314765
 30
-0.0000000000000004
 10
255.9778512795824
 20
212.3466320043389
 30
-0.0000000000000004
 10
256.0015369159579
 20
212.3188699150563
 30
-0.0000000000000004
 10
256.0066549555419
 20
212.312275784001
 30
-0.0000000000000004
 10
256.0177520672536
 20
212.2969374366372
 30
-0.0000000000000004
 10
256.0355935327079
 20
212.2708389971996
 30
-0.0000000000000004
 10
256.0573712459602
 20
212.2354874640654
 30
-0.0000000000000004
 10
256.1071983787297
 20
212.1524422990863
 30
-0.0000000000000004
 10
256.1487199806972
 20
212.0806837288402
 30
-0.0000000000000004
 10
256.2084571831672
 20
211.9809354827935
 30
-0.0000000000000004
 10
256.2152768130848
 20
211.9695869031963
 30
-0.0000000000000004
 10
256.2292956107319
 20
211.9463543797943
 30
-0.0000000000000004
 10
256.2365015647107
 20
211.9344594130374
 30
-0.0000000000000004
 10
256.2585927182058
 20
211.8981598909206
 30
-0.0000000000000004
 10
256.2739826007533
 20
211.873088587099
 30
-0.0000000000000004
 10
256.3222203550347
 20
211.7953401951952
 30
-0.0000000000000004
 10
256.3571348236227
 20
211.7401336226692
 30
-0.0000000000000004
 10
256.4329329198113
 20
211.623281398511
 30
-0.0000000000000004
 10
256.4738153633739
 20
211.5616360720178
 30
-0.0000000000000004
 10
256.5620669624922
 20
211.4320525628859
 30
-0.0000000000000004
 10
256.6094344964193
 20
211.3641151886443
 30
-0.0000000000000004
 10
256.673086218626
 20
211.2752396090117
 30
-0.0000000000000004
 10
256.686059705066
 20
211.2572378671386
 30
-0.0000000000000004
 10
256.712350249554
 20
211.2209902596234
 30
-0.0000000000000004
 10
256.7522771877628
 20
211.1662847121687
 30
-0.0000000000000004
 10
256.7936771559341
 20
211.1106048317011
 30
-0.0000000000000004
 10
256.8784442801104
 20
210.9980061142835
 30
-0.0000000000000004
 10
256.9967095593653
 20
210.8445792503641
 30
-0.0000000000000004
 10
257.1899986951652
 20
210.6051742264685
 30
-0.0000000000000004
 10
257.3296759448346
 20
210.4395402378647
 30
-0.0000000000000003
 10
257.4023115723658
 20
210.3551885990554
 30
-0.0000000000000003
  0
SPLINE
  5
FD
330
1F
100
AcDbEntity
  8
1
  6
Continuous
 62
     1
370
    13
100
AcDbSpline
210
0.0
220
0.0
230
1.0
 70
     8
 71
     3
 72
    29
 73
    25
 74
     0
 42
0.000000001
 43
0.0000000001
 40
0.0
 40
0.0
 40
0.0
 40
0.0
 40
0.1249999999999996
 40
0.1249999999999996
 40
0.2499999999999992
 40
0.2499999999999992
 40
0.3749999999999988
 40
0.3749999999999988
 40
0.4374999999999988
 40
0.4374999999999988
 40
0.4687499999999988
 40
0.4687499999999988
 40
0.4999999999999988
 40
0.4999999999999988
 40
0.6249999999999991
 40
0.6249999999999991
 40
0.7499999999999994
 40
0.7499999999999994
 40
0.8124999999999997
 40
0.8437499999999998
 40
0.8437499999999998
 40
0.8749999999999999
 40
0.8749999999999999
 40
1.0
 40
1.0
 40
1.0
 40
1.0
 10
123.5119243674371
 20
39.66050843287631
 30
0.0000000000000007
 10
123.7493088596916
 20
39.6956266106231
 30
0.0000000000000007
 10
123.9852993727178
 20
39.73508584253783
 30
0.0000000000000007
 10
124.4544486175612
 20
39.82504685450181
 30
0.0000000000000007
 10
124.6876016457856
 20
39.87556527133138
 30
0.0000000000000007
 10
125.1505807392977
 20
39.99025970200309
 30
0.0000000000000007
 10
125.380401130106
 20
40.05444533093292
 30
0.0000000000000007
 10
125.7220659389107
 20
40.16278454326886
 30
0.0000000000000007
 10
125.835441727298
 20
40.20090537700396
 30
0.0000000000000007
 10
126.0046570105776
 20
40.2612996346791
 30
0.0000000000000007
 10
126.0609614917973
 20
40.28198210926054
 30
0.0000000000000007
 10
126.1730284241054
 20
40.32435515900998
 30
0.0000000000000007
 10
126.2287910534165
 20
40.34604466504003
 30
0.0000000000000007
 10
126.5062154109689
 20
40.45704069011219
 30
0.0000000000000007
 10
126.7237030009078
 20
40.55400856087034
 30
0.0000000000000007
 10
127.1490147995349
 20
40.76486019571592
 30
0.0000000000000007
 10
127.3568416290426
 20
40.87873466874108
 30
0.0000000000000007
 10
127.6608900166869
 20
41.06246194146883
 30
0.0000000000000006
 10
127.8109927842797
 20
41.15755285746746
 30
0.0000000000000006
 10
127.9581374661588
 20
41.25752887464452
 30
0.0000000000000006
 10
128.0555681905399
 20
41.32527101191308
 30
0.0000000000000006
 10
128.1039755140082
 20
41.35970652098376
 30
0.0000000000000006
 10
128.3437715124055
 20
41.53421871498984
 30
0.0000000000000006
 10
128.5287769162659
 20
41.68150472167721
 30
0.0000000000000006
 10
128.706894957784
 20
41.83637832505602
 30
0.0000000000000006
  0
SPLINE
  5
FE
330
1F
100
AcDbEntity
  8
1
  6
Continuous
 62
     1
370
    13
100
AcDbSpline
210
0.0
220
0.0
230
1.0
 70
     8
 71
     3
 72
    29
 73
    25
 74
     0
 42
0.000000001
 43
0.0000000001
 40
0.0
 40
0.0
 40
0.0
 40
0.0
 40
0.1250000000000006
 40
0.1250000000000006
 40
0.2500000000000011
 40
0.2500000000000011
 40
0.3750000000000017
 40
0.3750000000000017
 40
0.4375000000000022
 40
0.4375000000000022
 40
0.4687500000000024
 40
0.4687500000000024
 40
0.5000000000000027
 40
0.5000000000000027
 40
0.6250000000000027
 40
0.6250000000000027
 40
0.7500000000000027
 40
0.7500000000000027
 40
0.8125000000000021
 40
0.8437500000000019
 40
0.8437500000000019
 40
0.8750000000000016
 40
0.8750000000000016
 40
1.0
 40
1.0
 40
1.0
 40
1.0
 10
116.8419497233205
 20
63.63262721587864
 30
-0.0000000000000007
 10
116.604565231066
 20
63.59750903813184
 30
-0.0000000000000007
 10
116.3685747180397
 20
63.55804980621711
 30
-0.0000000000000007
 10
115.8994254731964
 20
63.46808879425313
 30
-0.0000000000000007
 10
115.666272444972
 20
63.41757037742356
 30
-0.0000000000000007
 10
115.2032933514599
 20
63.30287594675186
 30
-0.0000000000000007
 10
114.9734729606516
 20
63.23869031782202
 30
-0.0000000000000007
 10
114.6318081518469
 20
63.13035110548608
 30
-0.0000000000000007
 10
114.5184323634596
 20
63.09223027175098
 30
-0.0000000000000007
 10
114.34921708018
 20
63.03183601407584
 30
-0.0000000000000007
 10
114.2929125989603
 20
63.0111535394944
 30
-0.0000000000000007
 10
114.1808456666522
 20
62.96878048974497
 30
-0.0000000000000007
 10
114.1250830373411
 20
62.94709098371492
 30
-0.0000000000000007
 10
113.8476586797887
 20
62.83609495864275
 30
-0.0000000000000007
 10
113.6301710898498
 20
62.7391270878846
 30
-0.0000000000000007
 10
113.2048592912226
 20
62.52827545303902
 30
-0.0000000000000007
 10
112.9970324617149
 20
62.41440098001385
 30
-0.0000000000000007
 10
112.6929840740707
 20
62.23067370728611
 30
-0.0000000000000006
 10
112.5428813064778
 20
62.13558279128748
 30
-0.0000000000000006
 10
112.3957366245987
 20
62.03560677411042
 30
-0.0000000000000006
 10
112.2983059002177
 20
61.96786463684186
 30
-0.0000000000000006
 10
112.2498985767494
 20
61.93342912777118
 30
-0.0000000000000006
 10
112.0101025783521
 20
61.75891693376511
 30
-0.0000000000000006
 10
111.8250971744917
 20
61.61163092707773
 30
-0.0000000000000006
 10
111.6469791329736
 20
61.45675732369892
 30
-0.0000000000000006
  0
SPLINE
  5
FF
330
1F
100
AcDbEntity
  8
1
  6
Continuous
 62
     1
370
    13
100
AcDbSpline
210
0.0
220
0.0
230
1.0
 70
     8
 71
     3
 72
    21
 73
    17
 74
     0
 42
0.000000001
 43
0.0000000001
 40
0.0
 40
0.0
 40
0.0
 40
0.0
 40
0.1250000000000001
 40
0.1250000000000001
 40
0.2500000000000001
 40
0.2500000000000001
 40
0.3750000000000002
 40
0.3750000000000002
 40
0.5000000000000002
 40
0.6250000000000001
 40
0.6250000000000001
 40
0.7500000000000001
 40
0.7500000000000001
 40
0.875
 40
0.875
 40
1.0
 40
1.0
 40
1.0
 40
1.0
 10
116.8419497233205
 20
39.66050843287631
 30
0.0000000000000007
 10
117.1198014263195
 20
39.66431806865952
 30
0.0000000000000007
 10
117.3977237467304
 20
39.66654285966732
 30
0.0000000000000007
 10
117.9535502166628
 20
39.66937437435479
 30
0.0000000000000007
 10
118.2314695557108
 20
39.66997636063684
 30
0.0000000000000007
 10
118.7873128667551
 20
39.67056268760951
 30
0.0000000000000007
 10
119.0652368567123
 20
39.67054463382199
 30
0.0000000000000007
 10
119.6210852028066
 20
39.67045970865931
 30
0.0000000000000007
 10
120.1769329024126
 20
39.67032401634656
 30
0.0000000000000007
 10
120.7327829189551
 20
39.67045970721597
 30
0.0000000000000007
 10
121.2886324166923
 20
39.67054463361733
 30
0.0000000000000007
 10
121.5665569161115
 20
39.67056268849625
 30
0.0000000000000007
 10
122.1223995538221
 20
39.6699763695486
 30
0.0000000000000007
 10
122.4003177165481
 20
39.66937438662234
 30
0.0000000000000007
 10
122.9561374094388
 20
39.66654294465957
 30
0.0000000000000007
 10
123.2340389911598
 20
39.66431853035518
 30
0.0000000000000007
 10
123.5119243674371
 20
39.66050843287631
 30
0.0000000000000007
  0
SPLINE
  5
100
330
1F
100
AcDbEntity
  8
1
  6
Continuous
 62
     1
370
    13
100
AcDbSpline
210
0.0
220
0.0
230
1.0
 70
     8
 71
     3
 72
    21
 73
    17
 74
     0
 42
0.000000001
 43
0.0000000001
 40
0.0
 40
0.0
 40
0.0
 40
0.0
 40
0.125
 40
0.125
 40
0.2499999999999999
 40
0.2499999999999999
 40
0.3749999999999999
 40
0.3749999999999999
 40
0.4999999999999999
 40
0.6249999999999999
 40
0.6249999999999999
 40
0.7499999999999998
 40
0.7499999999999998
 40
0.8749999999999999
 40
0.8749999999999999
 40
1.0
 40
1.0
 40
1.0
 40
1.0
 10
123.5119243674371
 20
63.63262721587864
 30
-0.0000000000000007
 10
123.2340726644381
 20
63.62881758009543
 30
-0.0000000000000007
 10
122.9561503440272
 20
63.62659278908762
 30
-0.0000000000000007
 10
122.4003238740948
 20
63.62376127440015
 30
-0.0000000000000007
 10
122.1224045350468
 20
63.6231592881181
 30
-0.0000000000000007
 10
121.5665612240025
 20
63.62257296114543
 30
-0.0000000000000007
 10
121.2886372340453
 20
63.62259101493295
 30
-0.0000000000000007
 10
120.732788887951
 20
63.62267594009564
 30
-0.0000000000000007
 10
120.176940731783
 20
63.62281163212166
 30
-0.0000000000000007
 10
119.6210911718025
 20
63.62267594153897
 30
-0.0000000000000007
 10
119.0652416740653
 20
63.62259101513762
 30
-0.0000000000000007
 10
118.7873171746461
 20
63.6225729602587
 30
-0.0000000000000007
 10
118.2314745369355
 20
63.62315927920633
 30
-0.0000000000000007
 10
117.9535563742095
 20
63.6237612621326
 30
-0.0000000000000007
 10
117.3977366813188
 20
63.62659270409537
 30
-0.0000000000000007
 10
117.1198350995978
 20
63.62881711839977
 30
-0.0000000000000007
 10
116.8419497233205
 20
63.63262721587864
 30
-0.0000000000000007
  0
SPLINE
  5
101
330
1F
100
AcDbEntity
  8
1
  6
Continuous
 62
     1
370
    13
100
AcDbSpline
210
0.0
220
0.0
230
1.0
 70
     8
 71
     3
 72
    26
 73
    22
 74
     0
 42
0.000000001
 43
0.0000000001
 40
0.0
 40
0.0
 40
0.0
 40
0.0
 40
0.1250000000000011
 40
0.1250000000000011
 40
0.2500000000000018
 40
0.2500000000000018
 40
0.3750000000000025
 40
0.3750000000000025
 40
0.4062500000000027
 40
0.4062500000000027
 40
0.4375000000000028
 40
0.4375000000000028
 40
0.5000000000000024
 40
0.5000000000000024
 40
0.6250000000000019
 40
0.6250000000000019
 40
0.7500000000000013
 40
0.7500000000000013
 40
0.8750000000000007
 40
0.8750000000000007
 40
1.0
 40
1.0
 40
1.0
 40
1.0
 10
128.706894957784
 20
61.45675732369892
 30
-0.0000000000000006
 10
128.5286003749979
 20
61.61178442967682
 30
-0.0000000000000006
 10
128.3440913479837
 20
61.75860995682827
 30
-0.0000000000000006
 10
127.963158619736
 20
62.03598256798146
 30
-0.0000000000000006
 10
127.7667108404741
 20
62.16653844364428
 30
-0.0000000000000006
 10
127.3621864357678
 20
62.41135762861143
 30
-0.0000000000000007
 10
127.1541047687071
 20
62.52561223631233
 30
-0.0000000000000007
 10
126.8869925733167
 20
62.65820832462121
 30
-0.0000000000000007
 10
126.8332200505503
 20
62.68421677438361
 30
-0.0000000000000007
 10
126.7249833998866
 20
62.7352133944031
 30
-0.0000000000000007
 10
126.670475919708
 20
62.76022027230998
 30
-0.0000000000000007
 10
126.5064313024252
 20
62.83349450703573
 30
-0.0000000000000007
 10
126.3962764348269
 20
62.88006433770106
 30
-0.0000000000000007
 10
126.0636040731197
 20
63.01321442978356
 30
-0.0000000000000007
 10
125.8388791704477
 20
63.09322149311526
 30
-0.0000000000000007
 10
125.38444958136
 20
63.23749428915013
 30
-0.0000000000000007
 10
125.15474935797
 20
63.30176124966859
 30
-0.0000000000000007
 10
124.6912164652612
 20
63.41675550780734
 30
-0.0000000000000007
 10
124.4573720090406
 20
63.46749602933524
 30
-0.0000000000000007
 10
123.9862387436556
 20
63.55790161005477
 30
-0.0000000000000007
 10
123.7496258018163
 20
63.59746215036017
 30
-0.0000000000000007
 10
123.5119243674371
 20
63.63262721587864
 30
-0.0000000000000007
  0
SPLINE
  5
102
330
1F
100
AcDbEntity
  8
1
  6
Continuous
 62
     1
370
    13
100
AcDbSpline
210
0.0
220
0.0
230
1.0
 70
     8
 71
     3
 72
    26
 73
    22
 74
     0
 42
0.000000001
 43
0.0000000001
 40
0.0
 40
0.0
 40
0.0
 40
0.0
 40
0.1250000000000001
 40
0.1250000000000001
 40
0.2499999999999999
 40
0.2499999999999999
 40
0.3749999999999997
 40
0.3749999999999997
 40
0.4062499999999997
 40
0.4062499999999997
 40
0.4374999999999997
 40
0.4374999999999997
 40
0.4999999999999999
 40
0.4999999999999999
 40
0.625
 40
0.625
 40
0.75
 40
0.75
 40
0.875
 40
0.875
 40
1.0
 40
1.0
 40
1.0
 40
1.0
 10
111.6469791329736
 20
41.83637832505602
 30
0.0000000000000006
 10
111.8252737157597
 20
41.68135121907812
 30
0.0000000000000006
 10
112.0097827427738
 20
41.53452569192667
 30
0.0000000000000006
 10
112.3907154710216
 20
41.25715308077348
 30
0.0000000000000006
 10
112.5871632502834
 20
41.12659720511066
 30
0.0000000000000006
 10
112.9916876549898
 20
40.88177802014352
 30
0.0000000000000007
 10
113.1997693220505
 20
40.76752341244261
 30
0.0000000000000007
 10
113.4668815174409
 20
40.63492732413373
 30
0.0000000000000007
 10
113.5206540402073
 20
40.60891887437133
 30
0.0000000000000007
 10
113.628890690871
 20
40.55792225435184
 30
0.0000000000000007
 10
113.6833981710495
 20
40.53291537644496
 30
0.0000000000000007
 10
113.8474427883323
 20
40.45964114171922
 30
0.0000000000000007
 10
113.9575976559307
 20
40.41307131105388
 30
0.0000000000000007
 10
114.2902700176379
 20
40.27992121897138
 30
0.0000000000000007
 10
114.5149949203099
 20
40.19991415563968
 30
0.0000000000000007
 10
114.9694245093976
 20
40.05564135960481
 30
0.0000000000000007
 10
115.1991247327876
 20
39.99137439908635
 30
0.0000000000000007
 10
115.6626576254964
 20
39.8763801409476
 30
0.0000000000000007
 10
115.896502081717
 20
39.82563961941971
 30
0.0000000000000007
 10
116.367635347102
 20
39.73523403870017
 30
0.0000000000000007
 10
116.6042482889413
 20
39.69567349839477
 30
0.0000000000000007
 10
116.8419497233205
 20
39.66050843287631
 30
0.0000000000000007
  0
SPLINE
  5
103
330
1F
100
AcDbEntity
  8
1
  6
Continuous
 62
     1
370
    13
100
AcDbSpline
210
0.0
220
0.0
230
1.0
 70
     8
 71
     3
 72
    41
 73
    37
 74
     0
 42
0.000000001
 43
0.0000000001
 40
0.0
 40
0.0
 40
0.0
 40
0.0
 40
0.0180543370982407
 40
0.0180543370982407
 40
0.1073221246347646
 40
0.1073221246347646
 40
0.1965899121712885
 40
0.1965899121712885
 40
0.2858576997078124
 40
0.2858576997078124
 40
0.3304915934760729
 40
0.3304915934760729
 40
0.3751254872443333
 40
0.3751254872443333
 40
0.464393274780856
 40
0.464393274780856
 40
0.5536610623173788
 40
0.5536610623173788
 40
0.5982949560856402
 40
0.5982949560856402
 40
0.6429288498539015
 40
0.6429288498539015
 40
0.6652457967380339
 40
0.6652457967380339
 40
0.6875627436221663
 40
0.732196637390431
 40
0.732196637390431
 40
0.8214644249269574
 40
0.8214644249269574
 40
0.8437813718110885
 40
0.8437813718110885
 40
0.8660983186952195
 40
0.8660983186952195
 40
0.9107322124634798
 40
0.9107322124634798
 40
1.0
 40
1.0
 40
1.0
 40
1.0
 10
130.9467998295974
 20
44.64381572690491
 30
0.0000000000000004
 10
130.9383858941935
 20
44.63879350611015
 30
0.0000000000000004
 10
130.9298978229413
 20
44.63383242770401
 30
0.0000000000000004
 10
130.8789988145039
 20
44.60470002165838
 30
0.0000000000000004
 10
130.8348463328788
 20
44.58194212447085
 30
0.0000000000000004
 10
130.7427433374588
 20
44.53915346118088
 30
0.0000000000000004
 10
130.6947940677471
 20
44.51912340306451
 30
0.0000000000000004
 10
130.5947885041321
 20
44.48154640270837
 30
0.0000000000000004
 10
130.5427344648598
 20
44.46400051753734
 30
0.0000000000000004
 10
130.4611952635997
 20
44.43932313473517
 30
0.0000000000000004
 10
130.4334152037265
 20
44.43136441350121
 30
0.0000000000000004
 10
130.3767041648656
 20
44.4159736237679
 30
0.0000000000000004
 10
130.3479064080404
 20
44.40857703683036
 30
0.0000000000000004
 10
130.2601211429546
 20
44.38718513938702
 30
0.0000000000000004
 10
130.1997478394253
 20
44.3739910363367
 30
0.0000000000000004
 10
130.074820660589
 20
44.34914737563356
 30
0.0000000000000004
 10
130.010269152025
 20
44.33749988830515
 30
0.0000000000000004
 10
129.9097786224844
 20
44.32064866614208
 30
0.0000000000000004
 10
129.8757148269352
 20
44.31514207853146
 30
0.0000000000000004
 10
129.8068872658863
 20
44.3043208775679
 30
0.0000000000000004
 10
129.7720570665099
 20
44.29899499259437
 30
0.0000000000000004
 10
129.7191554020868
 20
44.2910474852393
 30
0.0000000000000005
 10
129.701402857882
 20
44.28840384412669
 30
0.0000000000000005
 10
129.6658791689552
 20
44.28314570774872
 30
0.0000000000000005
 10
129.6124929225799
 20
44.27529130398511
 30
0.0000000000000005
 10
129.558811335513
 20
44.26747004891442
 30
0.0000000000000005
 10
129.4510719314655
 20
44.25170778300029
 30
0.0000000000000005
 10
129.3787441038587
 20
44.24103532864251
 30
0.0000000000000005
 10
129.2877638900099
 20
44.22700493432139
 30
0.0000000000000005
 10
129.2695393187778
 20
44.22416472157692
 30
0.0000000000000005
 10
129.2330345090295
 20
44.21840541841184
 30
0.0000000000000005
 10
129.2147206821973
 20
44.21548083026697
 30
0.0000000000000005
 10
129.1600223555196
 20
44.20662672747434
 30
0.0000000000000005
 10
129.1238543220109
 20
44.20061276037918
 30
0.0000000000000005
 10
129.0162026728361
 20
44.18215957637059
 30
0.0000000000000005
 10
128.9455721113767
 20
44.16930270901999
 30
0.0000000000000005
 10
128.8759609132302
 20
44.15577468979218
 30
0.0000000000000005
  0
SPLINE
  5
104
330
1F
100
AcDbEntity
  8
1
  6
Continuous
 62
     1
370
    13
100
AcDbSpline
210
0.0
220
0.0
230
1.0
 70
     8
 71
     3
 72
    38
 73
    34
 74
     0
 42
0.000000001
 43
0.0000000001
 40
0.0
 40
0.0
 40
0.0
 40
0.0
 40
0.0781709828803609
 40
0.0781709828803609
 40
0.1703538845923235
 40
0.1703538845923235
 40
0.2625367863042859
 40
0.2625367863042859
 40
0.3086282371602666
 40
0.3086282371602666
 40
0.3547196880162475
 40
0.3547196880162475
 40
0.4469025897282107
 40
0.4469025897282107
 40
0.5390854914401741
 40
0.5390854914401741
 40
0.5851769422961566
 40
0.5851769422961566
 40
0.6312683931521391
 40
0.6312683931521391
 40
0.6773598440081218
 40
0.6773598440081218
 40
0.7234512948641043
 40
0.7234512948641043
 40
0.8156341965760696
 40
0.8156341965760696
 40
0.8386799220040609
 40
0.8386799220040609
 40
0.8617256474320522
 40
0.8617256474320522
 40
0.9078170982880344
 40
0.9078170982880344
 40
1.0
 40
1.0
 40
1.0
 40
1.0
 10
109.4373563716569
 20
58.65061469442843
 30
-0.0000000000000004
 10
109.4741981862308
 20
58.67143618805019
 30
-0.0000000000000004
 10
109.5123706398395
 20
58.69120663346691
 30
-0.0000000000000004
 10
109.5985674807641
 20
58.73214831933974
 30
-0.0000000000000004
 10
109.6471301147857
 20
58.75293471504912
 30
-0.0000000000000004
 10
109.7484044390433
 20
58.79201878258851
 30
-0.0000000000000004
 10
109.8011139185791
 20
58.81031538617389
 30
-0.0000000000000004
 10
109.8836661915029
 20
58.83611697275185
 30
-0.0000000000000004
 10
109.911811893702
 20
58.84445668559424
 30
-0.0000000000000004
 10
109.9691482936907
 20
58.86057647030755
 30
-0.0000000000000004
 10
109.9982564704678
 20
58.86833481170102
 30
-0.0000000000000004
 10
110.0869625994145
 20
58.89080448944232
 30
-0.0000000000000004
 10
110.1479363404802
 20
58.90470724380808
 30
-0.0000000000000004
 10
110.2740106910212
 20
58.93095045178883
 30
-0.0000000000000004
 10
110.3391092366865
 20
58.94328895948674
 30
-0.0000000000000004
 10
110.4403482979753
 20
58.96116131790239
 30
-0.0000000000000004
 10
110.4746346863933
 20
58.96700270868485
 30
-0.0000000000000004
 10
110.5438801495648
 20
58.97848282719011
 30
-0.0000000000000004
 10
110.5789026371259
 20
58.98413285971795
 30
-0.0000000000000004
 10
110.6497833978493
 20
58.99536536134672
 30
-0.0000000000000004
 10
110.6854927838332
 20
59.00092428859796
 30
-0.0000000000000005
 10
110.7570056249796
 20
59.01197330681976
 30
-0.0000000000000005
 10
110.7928749471003
 20
59.01747389453017
 30
-0.0000000000000005
 10
110.9008014221887
 20
59.03406413096823
 30
-0.0000000000000005
 10
110.9731768679284
 20
59.04524692357144
 30
-0.0000000000000005
 10
111.064113097898
 20
59.05984927419594
 30
-0.0000000000000005
 10
111.0823237073581
 20
59.06280057449329
 30
-0.0000000000000005
 10
111.1187901294386
 20
59.06877508513233
 30
-0.0000000000000005
 10
111.1370778841057
 20
59.07180368368048
 30
-0.0000000000000005
 10
111.191742269523
 20
59.08096720461852
 30
-0.0000000000000005
 10
111.2278828219634
 20
59.08717357305022
 30
-0.0000000000000005
 10
111.3354384255265
 20
59.10616293847281
 30
-0.0000000000000005
 10
111.4059868586687
 20
59.11932240359992
 30
-0.0000000000000005
 10
111.475499856807
 20
59.13310213970654
 30
-0.0000000000000005
  0
SPLINE
  5
105
330
1F
100
AcDbEntity
  8
1
  6
Continuous
 62
     1
370
    13
100
AcDbSpline
210
0.0
220
0.0
230
1.0
 70
     8
 71
     3
 72
    36
 73
    32
 74
     0
 42
0.000000001
 43
0.0000000001
 40
0.0
 40
0.0
 40
0.0
 40
0.0
 40
0.0890194437698882
 40
0.0890194437698882
 40
0.1780388875397765
 40
0.1780388875397765
 40
0.2225486094247216
 40
0.2225486094247216
 40
0.2670583313096667
 40
0.2670583313096667
 40
0.3560777750795567
 40
0.3560777750795567
 40
0.4450972188494468
 40
0.4450972188494468
 40
0.4896069407343918
 40
0.4896069407343918
 40
0.5341166626193368
 40
0.5341166626193368
 40
0.5786263845042819
 40
0.5786263845042819
 40
0.6231361063892269
 40
0.6231361063892269
 40
0.7121555501591169
 40
0.7121555501591169
 40
0.801174993929007
 40
0.801174993929007
 40
0.8901944376988973
 40
0.8901944376988973
 40
0.9792138814687873
 40
0.9792138814687873
 40
1.0
 40
1.0
 40
1.0
 40
1.0
 10
128.8759609132302
 20
59.13736095896277
 30
-0.0000000000000005
 10
128.9457493763795
 20
59.12379849061715
 30
-0.0000000000000005
 10
129.0161881495443
 20
59.11098304580447
 30
-0.0000000000000005
 10
129.1584435940206
 20
59.08658930088173
 30
-0.0000000000000005
 10
129.2302607130895
 20
59.07501264970209
 30
-0.0000000000000005
 10
129.3390433162048
 20
59.05821610037073
 30
-0.0000000000000005
 10
129.3754799281844
 20
59.05271006887452
 30
-0.0000000000000005
 10
129.4487030770766
 20
59.04179836923614
 30
-0.0000000000000005
 10
129.4856305023773
 20
59.03637230505873
 30
-0.0000000000000005
 10
129.5948254388044
 20
59.02039604129423
 30
-0.0000000000000005
 10
129.666077520257
 20
59.01005901511591
 30
-0.0000000000000005
 10
129.8057106543408
 20
58.98908790950209
 30
-0.0000000000000004
 10
129.8740922298378
 20
58.97845352099094
 30
-0.0000000000000004
 10
129.9746464721855
 20
58.96161774660185
 30
-0.0000000000000004
 10
130.0078871487443
 20
58.95584727449245
 30
-0.0000000000000004
 10
130.0731706128814
 20
58.94400784019344
 30
-0.0000000000000004
 10
130.1052694510237
 20
58.93793034942044
 30
-0.0000000000000004
 10
130.168453688528
 20
58.92537061267859
 30
-0.0000000000000004
 10
130.1995815738485
 20
58.91887899882349
 30
-0.0000000000000004
 10
130.2606920131102
 20
58.90545199704034
 30
-0.0000000000000004
 10
130.2905730814889
 20
58.89853994339471
 30
-0.0000000000000004
 10
130.3783644318389
 20
58.87711564664404
 30
-0.0000000000000004
 10
130.434431315326
 20
58.86191227778203
 30
-0.0000000000000004
 10
130.5423007632438
 20
58.82926658390866
 30
-0.0000000000000004
 10
130.5941003136851
 20
58.81182577163667
 30
-0.0000000000000004
 10
130.6938471485971
 20
58.77438975226511
 30
-0.0000000000000004
 10
130.7417927458838
 20
58.75439552527325
 30
-0.0000000000000004
 10
130.8340764555177
 20
58.71157894928218
 30
-0.0000000000000004
 10
130.8784136615545
 20
58.68875731223164
 30
-0.0000000000000004
 10
130.9309494162783
 20
58.65870436055422
 30
-0.0000000000000004
 10
130.9408001595928
 20
58.65292982307902
 30
-0.0000000000000004
 10
130.9505402553638
 20
58.64707964651698
 30
-0.0000000000000004
  0
SPLINE
  5
106
330
1F
100
AcDbEntity
  8
1
  6
Continuous
 62
     1
370
    13
100
AcDbSpline
210
0.0
220
0.0
230
1.0
 70
     8
 71
     3
 72
    34
 73
    30
 74
     0
 42
0.000000001
 43
0.0000000001
 40
0.0
 40
0.0
 40
0.0
 40
0.0
 40
0.0920196092190453
 40
0.0920196092190453
 40
0.1840392184380905
 40
0.1840392184380905
 40
0.2300490230476122
 40
0.2300490230476122
 40
0.2760588276571338
 40
0.2760588276571338
 40
0.3680784368761776
 40
0.3680784368761776
 40
0.4600980460952214
 40
0.4600980460952214
 40
0.5061078507047443
 40
0.5061078507047443
 40
0.5521176553142672
 40
0.5521176553142672
 40
0.59812745992379
 40
0.59812745992379
 40
0.6441372645333129
 40
0.6441372645333129
 40
0.7361568737523593
 40
0.7361568737523593
 40
0.8281764829714057
 40
0.8281764829714057
 40
0.9201960921904522
 40
0.9201960921904522
 40
1.0
 40
1.0
 40
1.0
 40
1.0
 10
111.475499856807
 20
44.16003350904841
 30
0.0000000000000005
 10
111.405821766527
 20
44.17384597178466
 30
0.0000000000000005
 10
111.3354740940874
 20
44.18696202634086
 30
0.0000000000000005
 10
111.1933585875751
 20
44.21206180990665
 30
0.0000000000000005
 10
111.1215903014982
 20
44.22404393702048
 30
0.0000000000000005
 10
111.0128462052458
 20
44.24152472738875
 30
0.0000000000000005
 10
110.9764166361808
 20
44.24727144991718
 30
0.0000000000000005
 10
110.9031954663585
 20
44.25868855606746
 30
0.0000000000000005
 10
110.866240082769
 20
44.26438399185868
 30
0.0000000000000005
 10
110.7567773924022
 20
44.28121103645199
 30
0.0000000000000005
 10
110.6852704496866
 20
44.29214961641718
 30
0.0000000000000005
 10
110.5450118881419
 20
44.3143705269991
 30
0.0000000000000004
 10
110.4762597377149
 20
44.32565323781552
 30
0.0000000000000004
 10
110.3750853033671
 20
44.34348677277841
 30
0.0000000000000004
 10
110.3416128118826
 20
44.34959701911376
 30
0.0000000000000004
 10
110.2757688192441
 20
44.36213499851704
 30
0.0000000000000004
 10
110.2433832388687
 20
44.36856392956793
 30
0.0000000000000004
 10
110.1796162768002
 20
44.3818306469208
 30
0.0000000000000004
 10
110.1482263184005
 20
44.38867035546949
 30
0.0000000000000004
 10
110.086429084448
 20
44.40283199277705
 30
0.0000000000000004
 10
110.0562060985688
 20
44.41011150831281
 30
0.0000000000000004
 10
109.967396207322
 20
44.43263937801294
 30
0.0000000000000004
 10
109.9106600707518
 20
44.4485800643767
 30
0.0000000000000004
 10
109.8014806330319
 20
44.48270736498074
 30
0.0000000000000004
 10
109.7490402417299
 20
44.50089246781392
 30
0.0000000000000004
 10
109.6480449195841
 20
44.53982723694124
 30
0.0000000000000004
 10
109.5994916241067
 20
44.56057591651041
 30
0.0000000000000004
 10
109.5122323212766
 20
44.60197128930858
 30
0.0000000000000004
 10
109.4730753825285
 20
44.62226532815534
 30
0.0000000000000004
 10
109.4352521455072
 20
44.64371213952822
 30
0.0000000000000004
  0
SPLINE
  5
107
330
1F
100
AcDbEntity
  8
1
  6
Continuous
 62
     1
370
    13
100
AcDbSpline
210
0.0
220
0.0
230
1.0
 70
     8
 71
     3
 72
    35
 73
    31
 74
     0
 42
0.000000001
 43
0.0000000001
 40
0.0
 40
0.0
 40
0.0
 40
0.0
 40
0.0625
 40
0.0625
 40
0.1250000000000001
 40
0.1875000000000001
 40
0.1875000000000001
 40
0.2500000000000001
 40
0.2500000000000001
 40
0.3125000000000001
 40
0.3125000000000001
 40
0.3750000000000002
 40
0.3750000000000002
 40
0.4375000000000001
 40
0.4375000000000001
 40
0.5000000000000001
 40
0.5625
 40
0.5625
 40
0.6249999999999999
 40
0.6249999999999999
 40
0.6875
 40
0.6875
 40
0.75
 40
0.75
 40
0.8125
 40
0.8125
 40
0.875
 40
0.9375000000000001
 40
0.9375000000000001
 40
1.0
 40
1.0
 40
1.0
 40
1.0
 10
111.475499856807
 20
59.13310213970653
 30
-0.0000000000000005
 10
111.838001012638
 20
59.1426032595327
 30
-0.0000000000000005
 10
112.2005045641045
 20
59.14943574366716
 30
-0.0000000000000005
 10
112.9255157165292
 20
59.15858975132922
 30
-0.0000000000000005
 10
113.6505309197574
 20
59.16323133702542
 30
-0.0000000000000005
 10
114.3755524883116
 20
59.16078222146101
 30
-0.0000000000000005
 10
115.100576239406
 20
59.15590184950423
 30
-0.0000000000000005
 10
115.4630892046501
 20
59.15224778769218
 30
-0.0000000000000005
 10
116.1881162073581
 20
59.14374525705455
 30
-0.0000000000000005
 10
116.5506302412863
 20
59.13890072682306
 30
-0.0000000000000005
 10
117.2756582357857
 20
59.12929338290886
 30
-0.0000000000000005
 10
117.6381721908658
 20
59.12453668612981
 30
-0.0000000000000005
 10
118.3631989832837
 20
59.11626840961424
 30
-0.0000000000000005
 10
118.7257118144371
 20
59.11276371914937
 30
-0.0000000000000005
 10
119.450735597325
 20
59.10784793051525
 30
-0.0000000000000005
 10
120.1757574919911
 20
59.10503554026527
 30
-0.0000000000000005
 10
120.9007750076385
 20
59.10710118980624
 30
-0.0000000000000005
 10
121.6257905542217
 20
59.11136029256972
 30
-0.0000000000000005
 10
121.9882973470459
 20
59.11458204281043
 30
-0.0000000000000005
 10
122.7133096604461
 20
59.12244277335999
 30
-0.0000000000000005
 10
123.0758151871085
 20
59.12707497372993
 30
-0.0000000000000005
 10
123.8008259815892
 20
59.13662771567679
 30
-0.0000000000000005
 10
124.1633312551251
 20
59.14154188818296
 30
-0.0000000000000005
 10
124.8883426872515
 20
59.15038432016221
 30
-0.0000000000000005
 10
125.2508488497059
 20
59.15430827538608
 30
-0.0000000000000005
 10
125.9758631859304
 20
59.15991566605565
 30
-0.0000000000000005
 10
126.7008795367976
 20
59.16327883088942
 30
-0.0000000000000005
 10
127.4259019579285
 20
59.15987998143125
 30
-0.0000000000000005
 10
128.1509283031016
 20
59.15210991659067
 30
-0.0000000000000005
 10
128.5134434372342
 20
59.14603980558053
 30
-0.0000000000000005
 10
128.8759609132302
 20
59.13736095896276
 30
-0.0000000000000005
  0
SPLINE
  5
108
330
1F
100
AcDbEntity
  8
1
  6
Continuous
 62
     1
370
    13
100
AcDbSpline
210
0.0
220
0.0
230
1.0
 70
     8
 71
     3
 72
    35
 73
    31
 74
     0
 42
0.000000001
 43
0.0000000001
 40
0.0
 40
0.0
 40
0.0
 40
0.0
 40
0.0625000000000001
 40
0.0625000000000001
 40
0.1250000000000001
 40
0.1875000000000001
 40
0.1875000000000001
 40
0.2500000000000001
 40
0.2500000000000001
 40
0.3125000000000001
 40
0.3125000000000001
 40
0.3750000000000001
 40
0.3750000000000001
 40
0.4375
 40
0.4375
 40
0.5
 40
0.5624999999999999
 40
0.5624999999999999
 40
0.6249999999999998
 40
0.6249999999999998
 40
0.6874999999999999
 40
0.6874999999999999
 40
0.7499999999999999
 40
0.7499999999999999
 40
0.8124999999999999
 40
0.8124999999999999
 40
0.8749999999999999
 40
0.9375
 40
0.9375
 40
1.0
 40
1.0
 40
1.0
 40
1.0
 10
128.8759609132302
 20
44.15577468979218
 30
0.0000000000000005
 10
128.5134434372342
 20
44.14709584317441
 30
0.0000000000000005
 10
128.1509283031016
 20
44.14102573216427
 30
0.0000000000000005
 10
127.4259019579285
 20
44.1332556673237
 30
0.0000000000000005
 10
126.7008795371633
 20
44.12985722525922
 30
0.0000000000000005
 10
125.9758631859304
 20
44.13321998269928
 30
0.0000000000000005
 10
125.2508488497059
 20
44.13882737336886
 30
0.0000000000000005
 10
124.8883426872514
 20
44.14275132859274
 30
0.0000000000000005
 10
124.1633312551251
 20
44.15159376057198
 30
0.0000000000000005
 10
123.8008259815892
 20
44.15650793307815
 30
0.0000000000000005
 10
123.0758151871085
 20
44.16606067502501
 30
0.0000000000000005
 10
122.7133096604461
 20
44.17069287539496
 30
0.0000000000000005
 10
121.9882973470459
 20
44.17855360594451
 30
0.0000000000000005
 10
121.6257905542217
 20
44.18177535618522
 30
0.0000000000000005
 10
120.9007750076384
 20
44.1860344589487
 30
0.0000000000000005
 10
120.175757492348
 20
44.18810050608828
 30
0.0000000000000005
 10
119.450735597325
 20
44.1852877182397
 30
0.0000000000000005
 10
118.7257118144371
 20
44.18037192960557
 30
0.0000000000000005
 10
118.3631989832837
 20
44.1768672391407
 30
0.0000000000000005
 10
117.6381721908658
 20
44.16859896262513
 30
0.0000000000000005
 10
117.2756582357857
 20
44.16384226584633
 30
0.0000000000000005
 10
116.5506302412863
 20
44.15423492193213
 30
0.0000000000000005
 10
116.1881162073581
 20
44.14939039170039
 30
0.0000000000000005
 10
115.4630892046501
 20
44.14088786106277
 30
0.0000000000000005
 10
115.100576239406
 20
44.13723379925072
 30
0.0000000000000005
 10
114.3755524883116
 20
44.13235342729394
 30
0.0000000000000005
 10
113.6505309195621
 20
44.12990409415372
 30
0.0000000000000005
 10
112.9255157165292
 20
44.13454589742572
 30
0.0000000000000005
 10
112.2005045641045
 20
44.14369990508779
 30
0.0000000000000005
 10
111.838001012638
 20
44.15053238922224
 30
0.0000000000000005
 10
111.475499856807
 20
44.16003350904841
 30
0.0000000000000005
  0
LINE
  5
109
330
1F
100
AcDbEntity
  8
1
  6
CENTER
 62
    30
370
    13
100
AcDbLine
 10
120.260666
 20
176.004755
 30
0.0
 11
120.260666
 21
265.004755
 31
0.0
  0
LINE
  5
10A
330
1F
100
AcDbEntity
  8
1
  6
CENTER
 62
    30
370
    13
100
AcDbLine
 10
96.760666
 20
232.504755
 30
0.0
 11
145.760666
 21
232.504755
 31
0.0
  0
ENDSEC
  0
SECTION
  2
OBJECTS
  0
DICTIONARY
  5
C
330
0
100
AcDbDictionary
281
     1
  3
ACAD_DETAILVIEWSTYLE
350
15F
  3
ACAD_GROUP
350
D
  3
ACAD_LAYOUT
350
1A
  3
ACAD_MATERIAL
350
43
  3
ACAD_MLEADERSTYLE
350
6B
  3
ACAD_MLINESTYLE
350
17
  3
ACAD_PLOTSETTINGS
350
19
  3
ACAD_PLOTSTYLENAME
350
E
  3
ACAD_SCALELIST
350
47
  3
ACAD_SECTIONVIEWSTYLE
350
160
  3
ACAD_TABLESTYLE
350
69
  3
ACAD_VISUALSTYLE
350
2A
  3
ACDB_RECOMPOSE_DATA
350
15C
  3
AcDbVariableDictionary
350
11C
  0
DICTIONARY
  5
11A
330
8
100
AcDbDictionary
280
     1
281
     1
  3
ACAD_XREC_ROUNDTRIP
360
11B
  0
DICTIONARY
  5
15F
102
{ACAD_REACTORS
330
C
102
}
330
C
100
AcDbDictionary
281
     1
  0
DICTIONARY
  5
D
102
{ACAD_REACTORS
330
C
102
}
330
C
100
AcDbDictionary
281
     1
  0
DICTIONARY
  5
1A
102
{ACAD_REACTORS
330
C
102
}
330
C
100
AcDbDictionary
281
     1
  3
Layout1
350
1E
  3
Layout2
350
26
  3
Model
350
22
  0
DICTIONARY
  5
43
102
{ACAD_REACTORS
330
C
102
}
330
C
100
AcDbDictionary
281
     1
  3
ByBlock
350
45
  3
ByLayer
350
44
  3
Global
350
46
  0
DICTIONARY
  5
6B
102
{ACAD_REACTORS
330
C
102
}
330
C
100
AcDbDictionary
281
     1
  3
Standard
350
6C
  0
DICTIONARY
  5
17
102
{ACAD_REACTORS
330
C
102
}
330
C
100
AcDbDictionary
281
     1
  3
Standard
350
18
  0
DICTIONARY
  5
19
102
{ACAD_REACTORS
330
C
102
}
330
C
100
AcDbDictionary
281
     1
  0
ACDBDICTIONARYWDFLT
  5
E
102
{ACAD_REACTORS
330
C
102
}
330
C
100
AcDbDictionary
281
     1
  3
Normal
350
F
100
AcDbDictionaryWithDefault
340
F
  0
DICTIONARY
  5
47
102
{ACAD_REACTORS
330
C
102
}
330
C
100
AcDbDictionary
281
     1
  3
A0
350
48
  3
A1
350
49
  3
A2
350
4A
  3
A3
350
4B
  3
A4
350
4C
  3
A5
350
4D
  3
A6
350
4E
  3
A7
350
4F
  3
A8
350
50
  3
A9
350
51
  3
B0
350
52
  3
B1
350
53
  3
B2
350
54
  3
B3
350
55
  3
B4
350
56
  3
B5
350
57
  3
B6
350
58
  3
B7
350
59
  3
B8
350
5A
  3
B9
350
5B
  3
C0
350
5C
  3
C1
350
5D
  3
C2
350
5E
  3
C3
350
5F
  3
C4
350
60
  3
C5
350
61
  3
C6
350
62
  3
C7
350
63
  3
C8
350
64
  3
C9
350
65
  3
D0
350
66
  3
D1
350
67
  3
D2
350
68
  0
DICTIONARY
  5
160
102
{ACAD_REACTORS
330
C
102
}
330
C
100
AcDbDictionary
281
     1
  0
DICTIONARY
  5
69
102
{ACAD_REACTORS
330
C
102
}
330
C
100
AcDbDictionary
281
     1
  3
Standard
350
6A
  0
DICTIONARY
  5
2A
102
{ACAD_REACTORS
330
C
102
}
330
C
100
AcDbDictionary
281
     1
  3
2dWireframe
350
2F
  3
Basic
350
32
  3
Brighten
350
36
  3
ColorChange
350
3A
  3
Conceptual
350
34
  3
Dim
350
35
  3
EdgeColorOff
350
3D
  3
Facepattern
350
39
  3
Flat
350
2B
  3
FlatWithEdges
350
2C
  3
Gouraud
350
2D
  3
GouraudWithEdges
350
2E
  3
Hidden
350
31
  3
JitterOff
350
3B
  3
Linepattern
350
38
  3
OverhangOff
350
3C
  3
Realistic
350
33
  3
Shaded
350
42
  3
Shaded with edges
350
41
  3
Shades of Gray
350
3E
  3
Sketchy
350
3F
  3
Thicken
350
37
  3
Wireframe
350
30
  3
X-Ray
350
40
  0
XRECORD
  5
15C
102
{ACAD_REACTORS
330
C
102
}
330
C
100
AcDbXrecord
280
     1
 90
        1
330
6A
  0
DICTIONARY
  5
11C
102
{ACAD_REACTORS
330
C
102
}
330
C
100
AcDbDictionary
281
     1
  3
CANNOSCALE
350
11D
  3
CMLEADERSTYLE
350
15E
  3
CTABLESTYLE
350
15D
  3
MSLTSCALE
350
11E
  3
XCLIPFRAME
350
11F
  0
XRECORD
  5
11B
102
{ACAD_REACTORS
330
11A
102
}
330
11A
100
AcDbXrecord
280
     1
102
VTR_0.000_0.000_1.000_1.000_VISUALSTYLE
340
2F
102
VTR_0.000_0.000_1.000_1.000_GRIDDISPLAY
 70
     3
102
VTR_0.000_0.000_1.000_1.000_GRIDMAJOR
 70
     5
102
VTR_0.000_0.000_1.000_1.000_DEFAULTLIGHTING
280
     1
102
VTR_0.000_0.000_1.000_1.000_DEFAULTLIGHTINGTYPE
 70
     1
102
VTR_0.000_0.000_1.000_1.000_BRIGHTNESS
141
0.0
102
VTR_0.000_0.000_1.000_1.000_CONTRAST
142
0.0
102
VTR_0.000_0.000_0.500_1.000_VISUALSTYLE
340
2F
102
VTR_0.000_0.000_0.500_1.000_GRIDDISPLAY
 70
     3
102
VTR_0.000_0.000_0.500_1.000_GRIDMAJOR
 70
     5
102
VTR_0.000_0.000_0.500_1.000_DEFAULTLIGHTING
280
     1
102
VTR_0.000_0.000_0.500_1.000_DEFAULTLIGHTINGTYPE
 70
     1
102
VTR_0.000_0.000_0.500_1.000_BRIGHTNESS
141
0.0
102
VTR_0.000_0.000_0.500_1.000_CONTRAST
142
0.0
102
VTR_0.500_0.000_1.000_1.000_VISUALSTYLE
340
2F
102
VTR_0.500_0.000_1.000_1.000_GRIDDISPLAY
 70
     3
102
VTR_0.500_0.000_1.000_1.000_GRIDMAJOR
 70
     5
102
VTR_0.500_0.000_1.000_1.000_DEFAULTLIGHTING
280
     1
102
VTR_0.500_0.000_1.000_1.000_DEFAULTLIGHTINGTYPE
 70
     1
102
VTR_0.500_0.000_1.000_1.000_BRIGHTNESS
141
0.0
102
VTR_0.500_0.000_1.000_1.000_CONTRAST
142
0.0
102
VTR_0.000_0.500_1.000_1.000_VISUALSTYLE
340
2F
102
VTR_0.000_0.500_1.000_1.000_GRIDDISPLAY
 70
     3
102
VTR_0.000_0.500_1.000_1.000_GRIDMAJOR
 70
     5
102
VTR_0.000_0.500_1.000_1.000_DEFAULTLIGHTING
280
     1
102
VTR_0.000_0.500_1.000_1.000_DEFAULTLIGHTINGTYPE
 70
     1
102
VTR_0.000_0.500_1.000_1.000_BRIGHTNESS
141
0.0
102
VTR_0.000_0.500_1.000_1.000_CONTRAST
142
0.0
102
VTR_0.000_0.000_1.000_0.500_VISUALSTYLE
340
2F
102
VTR_0.000_0.000_1.000_0.500_GRIDDISPLAY
 70
     3
102
VTR_0.000_0.000_1.000_0.500_GRIDMAJOR
 70
     5
102
VTR_0.000_0.000_1.000_0.500_DEFAULTLIGHTING
280
     1
102
VTR_0.000_0.000_1.000_0.500_DEFAULTLIGHTINGTYPE
 70
     1
102
VTR_0.000_0.000_1.000_0.500_BRIGHTNESS
141
0.0
102
VTR_0.000_0.000_1.000_0.500_CONTRAST
142
0.0
102
VTR_0.000_0.500_0.500_1.000_VISUALSTYLE
340
2F
102
VTR_0.000_0.500_0.500_1.000_GRIDDISPLAY
 70
     3
102
VTR_0.000_0.500_0.500_1.000_GRIDMAJOR
 70
     5
102
VTR_0.000_0.500_0.500_1.000_DEFAULTLIGHTING
280
     1
102
VTR_0.000_0.500_0.500_1.000_DEFAULTLIGHTINGTYPE
 70
     1
102
VTR_0.000_0.500_0.500_1.000_BRIGHTNESS
141
0.0
102
VTR_0.000_0.500_0.500_1.000_CONTRAST
142
0.0
102
VTR_0.000_0.000_0.500_0.500_VISUALSTYLE
340
2F
102
VTR_0.000_0.000_0.500_0.500_GRIDDISPLAY
 70
     3
102
VTR_0.000_0.000_0.500_0.500_GRIDMAJOR
 70
     5
102
VTR_0.000_0.000_0.500_0.500_DEFAULTLIGHTING
280
     1
102
VTR_0.000_0.000_0.500_0.500_DEFAULTLIGHTINGTYPE
 70
     1
102
VTR_0.000_0.000_0.500_0.500_BRIGHTNESS
141
0.0
102
VTR_0.000_0.000_0.500_0.500_CONTRAST
142
0.0
102
VTR_0.500_0.000_1.000_0.500_VISUALSTYLE
340
2F
102
VTR_0.500_0.000_1.000_0.500_GRIDDISPLAY
 70
     3
102
VTR_0.500_0.000_1.000_0.500_GRIDMAJOR
 70
     5
102
VTR_0.500_0.000_1.000_0.500_DEFAULTLIGHTING
280
     1
102
VTR_0.500_0.000_1.000_0.500_DEFAULTLIGHTINGTYPE
 70
     1
102
VTR_0.500_0.000_1.000_0.500_BRIGHTNESS
141
0.0
102
VTR_0.500_0.000_1.000_0.500_CONTRAST
142
0.0
102
VTR_0.500_0.500_1.000_1.000_VISUALSTYLE
340
2F
102
VTR_0.500_0.500_1.000_1.000_GRIDDISPLAY
 70
     3
102
VTR_0.500_0.500_1.000_1.000_GRIDMAJOR
 70
     5
102
VTR_0.500_0.500_1.000_1.000_DEFAULTLIGHTING
280
     1
102
VTR_0.500_0.500_1.000_1.000_DEFAULTLIGHTINGTYPE
 70
     1
102
VTR_0.500_0.500_1.000_1.000_BRIGHTNESS
141
0.0
102
VTR_0.500_0.500_1.000_1.000_CONTRAST
142
0.0
102
VTR_0.000_0.500_0.333_1.000_VISUALSTYLE
340
2F
102
VTR_0.000_0.500_0.333_1.000_GRIDDISPLAY
 70
     3
102
VTR_0.000_0.500_0.333_1.000_GRIDMAJOR
 70
     5
102
VTR_0.000_0.500_0.333_1.000_DEFAULTLIGHTING
280
     1
102
VTR_0.000_0.500_0.333_1.000_DEFAULTLIGHTINGTYPE
 70
     1
102
VTR_0.000_0.500_0.333_1.000_BRIGHTNESS
141
0.0
102
VTR_0.000_0.500_0.333_1.000_CONTRAST
142
0.0
102
VTR_0.000_0.000_0.333_0.500_VISUALSTYLE
340
2F
102
VTR_0.000_0.000_0.333_0.500_GRIDDISPLAY
 70
     3
102
VTR_0.000_0.000_0.333_0.500_GRIDMAJOR
 70
     5
102
VTR_0.000_0.000_0.333_0.500_DEFAULTLIGHTING
280
     1
102
VTR_0.000_0.000_0.333_0.500_DEFAULTLIGHTINGTYPE
 70
     1
102
VTR_0.000_0.000_0.333_0.500_BRIGHTNESS
141
0.0
102
VTR_0.000_0.000_0.333_0.500_CONTRAST
142
0.0
102
VTR_0.333_0.500_0.667_1.000_VISUALSTYLE
340
2F
102
VTR_0.333_0.500_0.667_1.000_GRIDDISPLAY
 70
     3
102
VTR_0.333_0.500_0.667_1.000_GRIDMAJOR
 70
     5
102
VTR_0.333_0.500_0.667_1.000_DEFAULTLIGHTING
280
     1
102
VTR_0.333_0.500_0.667_1.000_DEFAULTLIGHTINGTYPE
 70
     1
102
VTR_0.333_0.500_0.667_1.000_BRIGHTNESS
141
0.0
102
VTR_0.333_0.500_0.667_1.000_CONTRAST
142
0.0
102
VTR_0.333_0.000_0.667_0.500_VISUALSTYLE
340
2F
102
VTR_0.333_0.000_0.667_0.500_GRIDDISPLAY
 70
     3
102
VTR_0.333_0.000_0.667_0.500_GRIDMAJOR
 70
     5
102
VTR_0.333_0.000_0.667_0.500_DEFAULTLIGHTING
280
     1
102
VTR_0.333_0.000_0.667_0.500_DEFAULTLIGHTINGTYPE
 70
     1
102
VTR_0.333_0.000_0.667_0.500_BRIGHTNESS
141
0.0
102
VTR_0.333_0.000_0.667_0.500_CONTRAST
142
0.0
102
VTR_0.667_0.500_1.000_1.000_VISUALSTYLE
340
2F
102
VTR_0.667_0.500_1.000_1.000_GRIDDISPLAY
 70
     3
102
VTR_0.667_0.500_1.000_1.000_GRIDMAJOR
 70
     5
102
VTR_0.667_0.500_1.000_1.000_DEFAULTLIGHTING
280
     1
102
VTR_0.667_0.500_1.000_1.000_DEFAULTLIGHTINGTYPE
 70
     1
102
VTR_0.667_0.500_1.000_1.000_BRIGHTNESS
141
0.0
102
VTR_0.667_0.500_1.000_1.000_CONTRAST
142
0.0
102
VTR_0.667_0.000_1.000_0.500_VISUALSTYLE
340
2F
102
VTR_0.667_0.000_1.000_0.500_GRIDDISPLAY
 70
     3
102
VTR_0.667_0.000_1.000_0.500_GRIDMAJOR
 70
     5
102
VTR_0.667_0.000_1.000_0.500_DEFAULTLIGHTING
280
     1
102
VTR_0.667_0.000_1.000_0.500_DEFAULTLIGHTINGTYPE
 70
     1
102
VTR_0.667_0.000_1.000_0.500_BRIGHTNESS
141
0.0
102
VTR_0.667_0.000_1.000_0.500_CONTRAST
142
0.0
  0
LAYOUT
  5
1E
102
{ACAD_REACTORS
330
1A
102
}
330
1A
100
AcDbPlotSettings
  1

  2
none_device
  4

  6

 40
0.0
 41
0.0
 42
0.0
 43
0.0
 44
0.0
 45
0.0
 46
0.0
 47
0.0
 48
0.0
 49
0.0
140
0.0
141
0.0
142
1.0
143
1.0
 70
   688
 72
     0
 73
     0
 74
     5
  7

 75
    16
 76
     0
 77
     2
 78
   300
147
1.0
148
0.0
149
0.0
100
AcDbLayout
  1
Layout1
 70
     1
 71
     1
 10
-0.5
 20
-0.5
 11
5.0
 21
5.0
 12
0.0
 22
0.0
 32
0.0
 14
-0.5
 24
-0.5
 34
-0.5
 15
5.0
 25
5.0
 35
5.0
146
0.0
 13
0.0
 23
0.0
 33
0.0
 16
1.0
 26
0.0
 36
0.0
 17
0.0
 27
1.0
 37
0.0
 76
     0
330
1B
  0
LAYOUT
  5
26
102
{ACAD_REACTORS
330
1A
102
}
330
1A
100
AcDbPlotSettings
  1

  2
none_device
  4

  6

 40
0.0
 41
0.0
 42
0.0
 43
0.0
 44
0.0
 45
0.0
 46
0.0
 47
0.0
 48
0.0
 49
0.0
140
0.0
141
0.0
142
1.0
143
1.0
 70
   688
 72
     0
 73
     0
 74
     5
  7

 75
    16
 76
     0
 77
     2
 78
   300
147
1.0
148
0.0
149
0.0
100
AcDbLayout
  1
Layout2
 70
     1
 71
     2
 10
0.0
 20
0.0
 11
0.0
 21
0.0
 12
0.0
 22
0.0
 32
0.0
 14
0.0
 24
0.0
 34
0.0
 15
0.0
 25
0.0
 35
0.0
146
0.0
 13
0.0
 23
0.0
 33
0.0
 16
1.0
 26
0.0
 36
0.0
 17
0.0
 27
1.0
 37
0.0
 76
     0
330
23
  0
LAYOUT
  5
22
102
{ACAD_REACTORS
330
1A
102
}
330
1A
100
AcDbPlotSettings
  1

  2
none_device
  4
Letter_(8.50_x_11.00_Inches)
  6

 40
6.35
 41
6.35
 42
6.350005
 43
6.350005
 44
215.9
 45
279.4
 46
0.0
 47
0.0
 48
0.0
 49
0.0
140
0.0
141
0.0
142
1.0
143
1.0
 70
  1712
 72
     0
 73
     0
 74
     0
  7

 75
     0
 76
     0
 77
     2
 78
   300
147
1.0
148
0.0
149
0.0
100
AcDbLayout
  1
Model
 70
     1
 71
     0
 10
-0.5
 20
-0.5
 11
5.0
 21
5.0
 12
0.0
 22
0.0
 32
0.0
 14
-0.5
 24
-0.5
 34
-0.5
 15
5.0
 25
5.0
 35
5.0
146
0.0
 13
0.0
 23
0.0
 33
0.0
 16
1.0
 26
0.0
 36
0.0
 17
0.0
 27
1.0
 37
0.0
 76
     0
330
1F
331
29
  0
MATERIAL
  5
45
102
{ACAD_REACTORS
330
43
102
}
102
{ACAD_XDICTIONARY
360
152
102
}
330
43
100
AcDbMaterial
  1
ByBlock
  0
MATERIAL
  5
44
102
{ACAD_REACTORS
330
43
102
}
102
{ACAD_XDICTIONARY
360
150
102
}
330
43
100
AcDbMaterial
  1
ByLayer
  0
MATERIAL
  5
46
102
{ACAD_REACTORS
330
43
102
}
102
{ACAD_XDICTIONARY
360
154
102
}
330
43
100
AcDbMaterial
  1
Global
  0
MLEADERSTYLE
  5
6C
102
{ACAD_REACTORS
330
6B
102
}
102
{ACAD_XDICTIONARY
360
15A
102
}
330
6B
100
AcDbMLeaderStyle
170
     2
171
     1
172
     0
 90
        2
 40
0.0
 41
0.0
173
     1
 91
-1056964608
340
14
 92
       -2
290
     1
 42
0.09
291
     1
 43
0.36
  3
Standard
341
0
 44
0.18
300

342
11
174
     1
178
     6
175
     1
176
     0
 93
-1056964608
 45
0.18
292
     0
297
     0
 46
0.18
343
0
 94
-1056964608
 47
1.0
 49
1.0
140
1.0
293
     1
141
0.0
294
     1
177
     0
142
1.0
295
     0
296
     0
143
0.125
1001
ACAD_MLEADERVER
1070
     2
  0
MLINESTYLE
  5
18
102
{ACAD_REACTORS
330
17
102
}
330
17
100
AcDbMlineStyle
  2
Standard
 70
     0
  3

 62
   256
 51
90.0
 52
90.0
 71
     2
 49
0.5
 62
   256
  6
BYLAYER
 49
-0.5
 62
   256
  6
BYLAYER
  0
ACDBPLACEHOLDER
  5
F
102
{ACAD_REACTORS
330
E
102
}
330
E
  0
SCALE
  5
48
102
{ACAD_REACTORS
330
47
102
}
330
47
100
AcDbScale
 70
     0
300
1:1
140
1.0
141
1.0
290
     1
  0
SCALE
  5
49
102
{ACAD_REACTORS
330
47
102
}
330
47
100
AcDbScale
 70
     0
300
1:2
140
1.0
141
2.0
290
     0
  0
SCALE
  5
4A
102
{ACAD_REACTORS
330
47
102
}
330
47
100
AcDbScale
 70
     0
300
1:4
140
1.0
141
4.0
290
     0
  0
SCALE
  5
4B
102
{ACAD_REACTORS
330
47
102
}
330
47
100
AcDbScale
 70
     0
300
1:5
140
1.0
141
5.0
290
     0
  0
SCALE
  5
4C
102
{ACAD_REACTORS
330
47
102
}
330
47
100
AcDbScale
 70
     0
300
1:8
140
1.0
141
8.0
290
     0
  0
SCALE
  5
4D
102
{ACAD_REACTORS
330
47
102
}
330
47
100
AcDbScale
 70
     0
300
1:10
140
1.0
141
10.0
290
     0
  0
SCALE
  5
4E
102
{ACAD_REACTORS
330
47
102
}
330
47
100
AcDbScale
 70
     0
300
1:16
140
1.0
141
16.0
290
     0
  0
SCALE
  5
4F
102
{ACAD_REACTORS
330
47
102
}
330
47
100
AcDbScale
 70
     0
300
1:20
140
1.0
141
20.0
290
     0
  0
SCALE
  5
50
102
{ACAD_REACTORS
330
47
102
}
330
47
100
AcDbScale
 70
     0
300
1:30
140
1.0
141
30.0
290
     0
  0
SCALE
  5
51
102
{ACAD_REACTORS
330
47
102
}
330
47
100
AcDbScale
 70
     0
300
1:40
140
1.0
141
40.0
290
     0
  0
SCALE
  5
52
102
{ACAD_REACTORS
330
47
102
}
330
47
100
AcDbScale
 70
     0
300
1:50
140
1.0
141
50.0
290
     0
  0
SCALE
  5
53
102
{ACAD_REACTORS
330
47
102
}
330
47
100
AcDbScale
 70
     0
300
1:100
140
1.0
141
100.0
290
     0
  0
SCALE
  5
54
102
{ACAD_REACTORS
330
47
102
}
330
47
100
AcDbScale
 70
     0
300
2:1
140
2.0
141
1.0
290
     0
  0
SCALE
  5
55
102
{ACAD_REACTORS
330
47
102
}
330
47
100
AcDbScale
 70
     0
300
4:1
140
4.0
141
1.0
290
     0
  0
SCALE
  5
56
102
{ACAD_REACTORS
330
47
102
}
330
47
100
AcDbScale
 70
     0
300
8:1
140
8.0
141
1.0
290
     0
  0
SCALE
  5
57
102
{ACAD_REACTORS
330
47
102
}
330
47
100
AcDbScale
 70
     0
300
10:1
140
10.0
141
1.0
290
     0
  0
SCALE
  5
58
102
{ACAD_REACTORS
330
47
102
}
330
47
100
AcDbScale
 70
     0
300
100:1
140
100.0
141
1.0
290
     0
  0
SCALE
  5
59
102
{ACAD_REACTORS
330
47
102
}
330
47
100
AcDbScale
 70
     0
300
1/128" = 1'-0"
140
0.007812
141
12.0
290
     0
  0
SCALE
  5
5A
102
{ACAD_REACTORS
330
47
102
}
330
47
100
AcDbScale
 70
     0
300
1/64" = 1'-0"
140
0.015625
141
12.0
290
     0
  0
SCALE
  5
5B
102
{ACAD_REACTORS
330
47
102
}
330
47
100
AcDbScale
 70
     0
300
1/32" = 1'-0"
140
0.03125
141
12.0
290
     0
  0
SCALE
  5
5C
102
{ACAD_REACTORS
330
47
102
}
330
47
100
AcDbScale
 70
     0
300
1/16" = 1'-0"
140
0.0625
141
12.0
290
     0
  0
SCALE
  5
5D
102
{ACAD_REACTORS
330
47
102
}
330
47
100
AcDbScale
 70
     0
300
3/32" = 1'-0"
140
0.09375
141
12.0
290
     0
  0
SCALE
  5
5E
102
{ACAD_REACTORS
330
47
102
}
330
47
100
AcDbScale
 70
     0
300
1/8" = 1'-0"
140
0.125
141
12.0
290
     0
  0
SCALE
  5
5F
102
{ACAD_REACTORS
330
47
102
}
330
47
100
AcDbScale
 70
     0
300
3/16" = 1'-0"
140
0.1875
141
12.0
290
     0
  0
SCALE
  5
60
102
{ACAD_REACTORS
330
47
102
}
330
47
100
AcDbScale
 70
     0
300
1/4" = 1'-0"
140
0.25
141
12.0
290
     0
  0
SCALE
  5
61
102
{ACAD_REACTORS
330
47
102
}
330
47
100
AcDbScale
 70
     0
300
3/8" = 1'-0"
140
0.375
141
12.0
290
     0
  0
SCALE
  5
62
102
{ACAD_REACTORS
330
47
102
}
330
47
100
AcDbScale
 70
     0
300
1/2" = 1'-0"
140
0.5
141
12.0
290
     0
  0
SCALE
  5
63
102
{ACAD_REACTORS
330
47
102
}
330
47
100
AcDbScale
 70
     0
300
3/4" = 1'-0"
140
0.75
141
12.0
290
     0
  0
SCALE
  5
64
102
{ACAD_REACTORS
330
47
102
}
330
47
100
AcDbScale
 70
     0
300
1" = 1'-0"
140
1.0
141
12.0
290
     0
  0
SCALE
  5
65
102
{ACAD_REACTORS
330
47
102
}
330
47
100
AcDbScale
 70
     0
300
1-1/2" = 1'-0"
140
1.5
141
12.0
290
     0
  0
SCALE
  5
66
102
{ACAD_REACTORS
330
47
102
}
330
47
100
AcDbScale
 70
     0
300
3" = 1'-0"
140
3.0
141
12.0
290
     0
  0
SCALE
  5
67
102
{ACAD_REACTORS
330
47
102
}
330
47
100
AcDbScale
 70
     0
300
6" = 1'-0"
140
6.0
141
12.0
290
     0
  0
SCALE
  5
68
102
{ACAD_REACTORS
330
47
102
}
330
47
100
AcDbScale
 70
     0
300
1'-0" = 1'-0"
140
12.0
141
12.0
290
     0
  0
TABLESTYLE
  5
6A
102
{ACAD_REACTORS
330
69
102
}
102
{ACAD_XDICTIONARY
360
156
102
}
330
69
100
AcDbTableStyle
  3
Standard
 70
     0
 71
     0
 40
0.06
 41
0.06
280
     0
281
     0
  7
Standard
140
0.18
170
     2
 62
     0
 63
   257
283
     0
274
    -2
284
     1
 64
     0
275
    -2
285
     1
 65
     0
276
    -2
286
     1
 66
     0
277
    -2
287
     1
 67
     0
278
    -2
288
     1
 68
     0
279
    -2
289
     1
 69
     0
  7
Standard
140
0.25
170
     5
 62
     0
 63
   257
283
     0
274
    -2
284
     1
 64
     0
275
    -2
285
     1
 65
     0
276
    -2
286
     1
 66
     0
277
    -2
287
     1
 67
     0
278
    -2
288
     1
 68
     0
279
    -2
289
     1
 69
     0
  7
Standard
140
0.18
170
     5
 62
     0
 63
   257
283
     0
274
    -2
284
     1
 64
     0
275
    -2
285
     1
 65
     0
276
    -2
286
     1
 66
     0
277
    -2
287
     1
 67
     0
278
    -2
288
     1
 68
     0
279
    -2
289
     1
 69
     0
  0
VISUALSTYLE
  5
2F
102
{ACAD_REACTORS
330
2A
102
}
102
{ACAD_XDICTIONARY
360
128
102
}
330
2A
100
AcDbVisualStyle
  2
2dWireframe
 70
     4
 71
     0
 72
     2
 73
     0
 90
        0
 40
0.6
 41
30.0
 62
     5
 63
     7
421
 16777215
 74
     1
 91
        4
 64
     7
 65
   257
 75
     1
175
     1
 42
1.0
 92
        0
 66
   257
 43
1.0
 76
     1
 77
     6
 78
     2
 67
     7
 79
     5
170
     0
171
     0
290
     0
174
     0
 93
        1
 44
0.0
173
     0
291
     0
 45
0.0
1001
ACAD
1000
AcDbSavedByObjectVersion
1070
     0
  0
VISUALSTYLE
  5
32
102
{ACAD_REACTORS
330
2A
102
}
102
{ACAD_XDICTIONARY
360
12E
102
}
330
2A
100
AcDbVisualStyle
  2
Basic
 70
     7
 71
     1
 72
     0
 73
     1
 90
        0
 40
0.6
 41
30.0
 62
     5
 63
     7
421
 16777215
 74
     0
 91
        4
 64
     7
 65
   257
 75
     1
175
     1
 42
1.0
 92
        8
 66
     7
 43
1.0
 76
     1
 77
     6
 78
     2
 67
     7
 79
     5
170
     0
171
     0
290
     0
174
     0
 93
        1
 44
0.0
173
     0
291
     1
 45
0.0
1001
ACAD
1000
AcDbSavedByObjectVersion
1070
     0
  0
VISUALSTYLE
  5
36
102
{ACAD_REACTORS
330
2A
102
}
102
{ACAD_XDICTIONARY
360
136
102
}
330
2A
100
AcDbVisualStyle
  2
Brighten
 70
    12
 71
     2
 72
     2
 73
     0
 90
        0
 40
0.6
 41
30.0
 62
     5
 63
     7
421
 16777215
 74
     1
 91
        4
 64
     7
 65
   257
 75
     1
175
     1
 42
1.0
 92
        8
 66
     7
 43
1.0
 76
     1
 77
     6
 78
     2
 67
     7
 79
     5
170
     0
171
     0
290
     0
174
     0
 93
        1
 44
50.0
173
     0
291
     1
 45
0.0
1001
ACAD
1000
AcDbSavedByObjectVersion
1070
     0
  0
VISUALSTYLE
  5
3A
102
{ACAD_REACTORS
330
2A
102
}
102
{ACAD_XDICTIONARY
360
13E
102
}
330
2A
100
AcDbVisualStyle
  2
ColorChange
 70
    16
 71
     2
 72
     2
 73
     3
 90
        0
 40
0.6
 41
30.0
 62
     5
 63
     8
421
  8421504
 74
     1
 91
        4
 64
     7
 65
   257
 75
     1
175
     1
 42
1.0
 92
        8
 66
     8
424
  8421504
 43
1.0
 76
     1
 77
     6
 78
     2
 67
     7
 79
     5
170
     0
171
     0
290
     0
174
     0
 93
        1
 44
0.0
173
     0
291
     1
 45
0.0
1001
ACAD
1000
AcDbSavedByObjectVersion
1070
     0
  0
VISUALSTYLE
  5
34
102
{ACAD_REACTORS
330
2A
102
}
102
{ACAD_XDICTIONARY
360
132
102
}
330
2A
100
AcDbVisualStyle
  2
Conceptual
 70
     9
 71
     3
 72
     2
 73
     0
 90
        0
 40
0.6
 41
30.0
 62
     5
 63
     7
421
 16777215
 74
     2
 91
        2
 64
     7
 65
   257
 75
     1
175
     1
 42
179.0
 92
        8
 66
     7
 43
1.0
 76
     1
 77
     6
 78
     2
 67
     7
 79
     3
170
     0
171
     0
290
     0
174
     0
 93
        1
 44
0.0
173
     0
291
     0
 45
0.0
1001
ACAD
1000
AcDbSavedByObjectVersion
1070
     0
  0
VISUALSTYLE
  5
35
102
{ACAD_REACTORS
330
2A
102
}
102
{ACAD_XDICTIONARY
360
134
102
}
330
2A
100
AcDbVisualStyle
  2
Dim
 70
    11
 71
     2
 72
     2
 73
     0
 90
        0
 40
0.6
 41
30.0
 62
     5
 63
     7
421
 16777215
 74
     1
 91
        4
 64
     7
 65
   257
 75
     1
175
     1
 42
1.0
 92
        8
 66
     7
 43
1.0
 76
     1
 77
     6
 78
     2
 67
     7
 79
     5
170
     0
171
     0
290
     0
174
     0
 93
        1
 44
-50.0
173
     0
291
     1
 45
0.0
1001
ACAD
1000
AcDbSavedByObjectVersion
1070
     0
  0
VISUALSTYLE
  5
3D
102
{ACAD_REACTORS
330
2A
102
}
102
{ACAD_XDICTIONARY
360
144
102
}
330
2A
100
AcDbVisualStyle
  2
EdgeColorOff
 70
    22
 71
     2
 72
     2
 73
     0
 90
        0
 40
0.6
 41
30.0
 62
     5
 63
     7
421
 16777215
 74
     1
 91
        4
 64
     7
 65
   257
 75
     1
175
     1
 42
1.0
 92
        8
 66
     7
 43
1.0
 76
     1
 77
     6
 78
     2
 67
     7
 79
     5
170
     0
171
     0
290
     0
174
     0
 93
        1
 44
0.0
173
     0
291
     1
 45
0.0
1001
ACAD
1000
AcDbSavedByObjectVersion
1070
     0
  0
VISUALSTYLE
  5
39
102
{ACAD_REACTORS
330
2A
102
}
102
{ACAD_XDICTIONARY
360
13C
102
}
330
2A
100
AcDbVisualStyle
  2
Facepattern
 70
    15
 71
     2
 72
     2
 73
     0
 90
        0
 40
0.6
 41
30.0
 62
     5
 63
     7
421
 16777215
 74
     1
 91
        4
 64
     7
 65
   257
 75
     1
175
     1
 42
1.0
 92
        8
 66
     7
 43
1.0
 76
     1
 77
     6
 78
     2
 67
     7
 79
     5
170
     0
171
     0
290
     0
174
     0
 93
        1
 44
0.0
173
     0
291
     1
 45
0.0
1001
ACAD
1000
AcDbSavedByObjectVersion
1070
     0
  0
VISUALSTYLE
  5
2B
102
{ACAD_REACTORS
330
2A
102
}
102
{ACAD_XDICTIONARY
360
120
102
}
330
2A
100
AcDbVisualStyle
  2
Flat
 70
     0
 71
     2
 72
     1
 73
     1
 90
        2
 40
0.6
 41
30.0
 62
     5
 63
     7
421
 16777215
 74
     0
 91
        0
 64
     7
 65
   257
 75
     1
175
     1
 42
1.0
 92
        8
 66
     7
 43
1.0
 76
     1
 77
     6
 78
     2
 67
     7
 79
     5
170
     0
171
     0
290
     0
174
     0
 93
       13
 44
0.0
173
     0
291
     1
 45
0.0
1001
ACAD
1000
AcDbSavedByObjectVersion
1070
     0
  0
VISUALSTYLE
  5
2C
102
{ACAD_REACTORS
330
2A
102
}
102
{ACAD_XDICTIONARY
360
122
102
}
330
2A
100
AcDbVisualStyle
  2
FlatWithEdges
 70
     1
 71
     2
 72
     1
 73
     1
 90
        2
 40
0.6
 41
30.0
 62
     5
 63
     7
421
 16777215
 74
     1
 91
        0
 64
     7
 65
   257
 75
     1
175
     1
 42
1.0
 92
        0
 66
   257
 43
1.0
 76
     1
 77
     6
 78
     2
 67
     7
 79
     5
170
     0
171
     0
290
     0
174
     0
 93
       13
 44
0.0
173
     0
291
     1
 45
0.0
1001
ACAD
1000
AcDbSavedByObjectVersion
1070
     0
  0
VISUALSTYLE
  5
2D
102
{ACAD_REACTORS
330
2A
102
}
102
{ACAD_XDICTIONARY
360
124
102
}
330
2A
100
AcDbVisualStyle
  2
Gouraud
 70
     2
 71
     2
 72
     2
 73
     1
 90
        2
 40
0.6
 41
30.0
 62
     5
 63
     7
421
 16777215
 74
     0
 91
        0
 64
     7
 65
   257
 75
     1
175
     1
 42
1.0
 92
        0
 66
     7
 43
1.0
 76
     1
 77
     6
 78
     2
 67
     7
 79
     5
170
     0
171
     0
290
     0
174
     0
 93
       13
 44
0.0
173
     0
291
     1
 45
0.0
1001
ACAD
1000
AcDbSavedByObjectVersion
1070
     0
  0
VISUALSTYLE
  5
2E
102
{ACAD_REACTORS
330
2A
102
}
102
{ACAD_XDICTIONARY
360
126
102
}
330
2A
100
AcDbVisualStyle
  2
GouraudWithEdges
 70
     3
 71
     2
 72
     2
 73
     1
 90
        2
 40
0.6
 41
30.0
 62
     5
 63
     7
421
 16777215
 74
     1
 91
        0
 64
     7
 65
   257
 75
     1
175
     1
 42
1.0
 92
        0
 66
   257
 43
1.0
 76
     1
 77
     6
 78
     2
 67
     7
 79
     5
170
     0
171
     0
290
     0
174
     0
 93
       13
 44
0.0
173
     0
291
     1
 45
0.0
1001
ACAD
1000
AcDbSavedByObjectVersion
1070
     0
  0
VISUALSTYLE
  5
31
102
{ACAD_REACTORS
330
2A
102
}
102
{ACAD_XDICTIONARY
360
12C
102
}
330
2A
100
AcDbVisualStyle
  2
Hidden
 70
     6
 71
     1
 72
     2
 73
     2
 90
        0
 40
0.6
 41
30.0
 62
     5
 63
     7
421
 16777215
 74
     2
 91
        2
 64
     7
 65
   257
 75
     2
175
     1
 42
40.0
 92
        0
 66
   257
 43
1.0
 76
     1
 77
     6
 78
     2
 67
     7
 79
     3
170
     0
171
     0
290
     0
174
     0
 93
        1
 44
0.0
173
     0
291
     0
 45
0.0
1001
ACAD
1000
AcDbSavedByObjectVersion
1070
     0
  0
VISUALSTYLE
  5
3B
102
{ACAD_REACTORS
330
2A
102
}
102
{ACAD_XDICTIONARY
360
140
102
}
330
2A
100
AcDbVisualStyle
  2
JitterOff
 70
    20
 71
     2
 72
     2
 73
     0
 90
        0
 40
0.6
 41
30.0
 62
     5
 63
     7
421
 16777215
 74
     1
 91
        4
 64
     7
 65
   257
 75
     1
175
     1
 42
1.0
 92
       10
 66
     7
 43
1.0
 76
     1
 77
     6
 78
     2
 67
     7
 79
     5
170
     0
171
     0
290
     0
174
     0
 93
        1
 44
0.0
173
     0
291
     1
 45
0.0
1001
ACAD
1000
AcDbSavedByObjectVersion
1070
     0
  0
VISUALSTYLE
  5
38
102
{ACAD_REACTORS
330
2A
102
}
102
{ACAD_XDICTIONARY
360
13A
102
}
330
2A
100
AcDbVisualStyle
  2
Linepattern
 70
    14
 71
     2
 72
     2
 73
     0
 90
        0
 40
0.6
 41
30.0
 62
     5
 63
     7
421
 16777215
 74
     1
 91
        4
 64
     7
 65
   257
 75
     7
175
     7
 42
1.0
 92
        8
 66
     7
 43
1.0
 76
     1
 77
     6
 78
     2
 67
     7
 79
     5
170
     0
171
     0
290
     0
174
     0
 93
        1
 44
0.0
173
     0
291
     1
 45
0.0
1001
ACAD
1000
AcDbSavedByObjectVersion
1070
     0
  0
VISUALSTYLE
  5
3C
102
{ACAD_REACTORS
330
2A
102
}
102
{ACAD_XDICTIONARY
360
142
102
}
330
2A
100
AcDbVisualStyle
  2
OverhangOff
 70
    21
 71
     2
 72
     2
 73
     0
 90
        0
 40
0.6
 41
30.0
 62
     5
 63
     7
421
 16777215
 74
     1
 91
        4
 64
     7
 65
   257
 75
     1
175
     1
 42
1.0
 92
        9
 66
     7
 43
1.0
 76
     1
 77
     6
 78
     2
 67
     7
 79
     5
170
     0
171
     0
290
     0
174
     0
 93
        1
 44
0.0
173
     0
291
     1
 45
0.0
1001
ACAD
1000
AcDbSavedByObjectVersion
1070
     0
  0
VISUALSTYLE
  5
33
102
{ACAD_REACTORS
330
2A
102
}
102
{ACAD_XDICTIONARY
360
130
102
}
330
2A
100
AcDbVisualStyle
  2
Realistic
 70
     8
 71
     2
 72
     3
 73
     0
 90
        2
 40
0.6
 41
30.0
 62
     5
 63
     7
421
 16777215
 74
     0
 91
        0
 64
     7
 65
   257
 75
     1
175
     1
 42
1.0
 92
        8
 66
   257
 43
1.0
 76
     1
 77
     6
 78
     2
 67
     7
 79
     3
170
     0
171
     0
290
     0
174
     0
 93
       13
 44
0.0
173
     0
291
     0
 45
0.0
1001
ACAD
1000
AcDbSavedByObjectVersion
1070
     0
  0
VISUALSTYLE
  5
42
102
{ACAD_REACTORS
330
2A
102
}
102
{ACAD_XDICTIONARY
360
14E
102
}
330
2A
100
AcDbVisualStyle
  2
Shaded
 70
    27
 71
     2
 72
     2
 73
     1
 90
        2
 40
0.6
 41
30.0
 62
     5
 63
     7
421
 16777215
 74
     0
 91
        4
 64
     7
 65
   257
 75
     1
175
     1
 42
1.0
 92
        8
 66
   257
 43
1.0
 76
     1
 77
     6
 78
     2
 67
     8
425
  7895160
 79
     3
170
     0
171
     0
290
     0
174
     0
 93
        5
 44
0.0
173
     0
291
     0
 45
0.0
1001
ACAD
1000
AcDbSavedByObjectVersion
1070
     0
  0
VISUALSTYLE
  5
41
102
{ACAD_REACTORS
330
2A
102
}
102
{ACAD_XDICTIONARY
360
14C
102
}
330
2A
100
AcDbVisualStyle
  2
Shaded with edges
 70
    26
 71
     2
 72
     2
 73
     1
 90
        2
 40
0.6
 41
30.0
 62
     5
 63
     7
421
 16777215
 74
     1
 91
       10
 64
     7
 65
   257
 75
     2
175
     1
 42
1.0
 92
        8
 66
   257
 43
1.0
 76
     1
 77
     6
 78
     2
 67
     7
 79
     3
170
     0
171
     0
290
     0
174
     0
 93
        5
 44
0.0
173
     0
291
     0
 45
0.0
1001
ACAD
1000
AcDbSavedByObjectVersion
1070
     0
  0
VISUALSTYLE
  5
3E
102
{ACAD_REACTORS
330
2A
102
}
102
{ACAD_XDICTIONARY
360
146
102
}
330
2A
100
AcDbVisualStyle
  2
Shades of Gray
 70
    23
 71
     2
 72
     2
 73
     3
 90
        0
 40
0.6
 41
30.0
 62
     5
 63
     7
421
 16777215
 74
     2
 91
        2
 64
     7
 65
     7
 75
     1
175
     1
 42
40.0
 92
        8
 66
     7
 43
1.0
 76
     1
 77
     6
 78
     2
 67
     7
 79
     3
170
     0
171
     0
290
     0
174
     0
 93
        1
 44
0.0
173
     0
291
     0
 45
0.0
1001
ACAD
1000
AcDbSavedByObjectVersion
1070
     0
  0
VISUALSTYLE
  5
3F
102
{ACAD_REACTORS
330
2A
102
}
102
{ACAD_XDICTIONARY
360
148
102
}
330
2A
100
AcDbVisualStyle
  2
Sketchy
 70
    24
 71
     1
 72
     2
 73
     2
 90
        0
 40
0.6
 41
30.0
 62
     5
 63
     7
421
 16777215
 74
     2
 91
        2
 64
     7
 65
     7
 75
     1
175
     1
 42
40.0
 92
       11
 66
     7
 43
1.0
 76
     1
 77
     6
 78
     2
 67
     7
 79
     6
170
     0
171
     0
290
     0
174
     0
 93
        1
 44
0.0
173
     0
291
     0
 45
0.0
1001
ACAD
1000
AcDbSavedByObjectVersion
1070
     0
  0
VISUALSTYLE
  5
37
102
{ACAD_REACTORS
330
2A
102
}
102
{ACAD_XDICTIONARY
360
138
102
}
330
2A
100
AcDbVisualStyle
  2
Thicken
 70
    13
 71
     2
 72
     2
 73
     0
 90
        0
 40
0.6
 41
30.0
 62
     5
 63
     7
421
 16777215
 74
     1
 91
        4
 64
     7
 65
   257
 75
     1
175
     1
 42
1.0
 92
       12
 66
     7
 43
1.0
 76
     1
 77
     6
 78
     2
 67
     7
 79
     5
170
     0
171
     0
290
     0
174
     0
 93
        1
 44
0.0
173
     0
291
     1
 45
0.0
1001
ACAD
1000
AcDbSavedByObjectVersion
1070
     0
  0
VISUALSTYLE
  5
30
102
{ACAD_REACTORS
330
2A
102
}
102
{ACAD_XDICTIONARY
360
12A
102
}
330
2A
100
AcDbVisualStyle
  2
Wireframe
 70
     5
 71
     0
 72
     2
 73
     0
 90
        0
 40
0.6
 41
30.0
 62
     5
 63
     7
421
 16777215
 74
     1
 91
        4
 64
     7
 65
   257
 75
     1
175
     1
 42
1.0
 92
        0
 66
   257
 43
1.0
 76
     1
 77
     6
 78
     2
 67
     7
 79
     3
170
     0
171
     0
290
     0
174
     0
 93
        1
 44
0.0
173
     0
291
     0
 45
0.0
1001
ACAD
1000
AcDbSavedByObjectVersion
1070
     0
  0
VISUALSTYLE
  5
40
102
{ACAD_REACTORS
330
2A
102
}
102
{ACAD_XDICTIONARY
360
14A
102
}
330
2A
100
AcDbVisualStyle
  2
X-Ray
 70
    25
 71
     2
 72
     2
 73
     1
 90
        1
 40
0.5
 41
30.0
 62
     5
 63
     7
421
 16777215
 74
     1
 91
        0
 64
     7
 65
   257
 75
     1
175
     1
 42
1.0
 92
        8
 66
     7
 43
1.0
 76
     1
 77
     6
 78
     2
 67
     7
 79
     3
170
     0
171
     0
290
     0
174
     0
 93
       13
 44
0.0
173
     0
291
     0
 45
0.0
1001
ACAD
1000
AcDbSavedByObjectVersion
1070
     0
  0
DICTIONARYVAR
  5
11D
102
{ACAD_REACTORS
330
11C
102
}
330
11C
100
DictionaryVariables
280
     0
  1
1:1
  0
DICTIONARYVAR
  5
15E
102
{ACAD_REACTORS
330
11C
102
}
330
11C
100
DictionaryVariables
280
     0
  1
Standard
  0
DICTIONARYVAR
  5
15D
102
{ACAD_REACTORS
330
11C
102
}
330
11C
100
DictionaryVariables
280
     0
  1
Standard
  0
DICTIONARYVAR
  5
11E
102
{ACAD_REACTORS
330
11C
102
}
330
11C
100
DictionaryVariables
280
     0
  1
1
  0
DICTIONARYVAR
  5
11F
102
{ACAD_REACTORS
330
11C
102
}
330
11C
100
DictionaryVariables
280
     0
  1
2
  0
DICTIONARY
  5
152
330
45
100
AcDbDictionary
280
     1
281
     1
  3
ACAD_XREC_ROUNDTRIP
360
153
  0
DICTIONARY
  5
150
330
44
100
AcDbDictionary
280
     1
281
     1
  3
ACAD_XREC_ROUNDTRIP
360
151
  0
DICTIONARY
  5
154
330
46
100
AcDbDictionary
280
     1
281
     1
  3
ACAD_XREC_ROUNDTRIP
360
155
  0
DICTIONARY
  5
15A
330
6C
100
AcDbDictionary
280
     1
281
     1
  3
ACAD_XREC_ROUNDTRIP
360
15B
  0
DICTIONARY
  5
156
330
6A
100
AcDbDictionary
280
     1
281
     1
  3
ACAD_ROUNDTRIP_2008_TABLESTYLE_CELLSTYLEMAP
360
158
  3
ACAD_XREC_ROUNDTRIP
360
157
  0
DICTIONARY
  5
128
330
2F
100
AcDbDictionary
280
     1
281
     1
  3
ACAD_XREC_ROUNDTRIP
360
129
  0
DICTIONARY
  5
12E
330
32
100
AcDbDictionary
280
     1
281
     1
  3
ACAD_XREC_ROUNDTRIP
360
12F
  0
DICTIONARY
  5
136
330
36
100
AcDbDictionary
280
     1
281
     1
  3
ACAD_XREC_ROUNDTRIP
360
137
  0
DICTIONARY
  5
13E
330
3A
100
AcDbDictionary
280
     1
281
     1
  3
ACAD_XREC_ROUNDTRIP
360
13F
  0
DICTIONARY
  5
132
330
34
100
AcDbDictionary
280
     1
281
     1
  3
ACAD_XREC_ROUNDTRIP
360
133
  0
DICTIONARY
  5
134
330
35
100
AcDbDictionary
280
     1
281
     1
  3
ACAD_XREC_ROUNDTRIP
360
135
  0
DICTIONARY
  5
144
330
3D
100
AcDbDictionary
280
     1
281
     1
  3
ACAD_XREC_ROUNDTRIP
360
145
  0
DICTIONARY
  5
13C
330
39
100
AcDbDictionary
280
     1
281
     1
  3
ACAD_XREC_ROUNDTRIP
360
13D
  0
DICTIONARY
  5
120
330
2B
100
AcDbDictionary
280
     1
281
     1
  3
ACAD_XREC_ROUNDTRIP
360
121
  0
DICTIONARY
  5
122
330
2C
100
AcDbDictionary
280
     1
281
     1
  3
ACAD_XREC_ROUNDTRIP
360
123
  0
DICTIONARY
  5
124
330
2D
100
AcDbDictionary
280
     1
281
     1
  3
ACAD_XREC_ROUNDTRIP
360
125
  0
DICTIONARY
  5
126
330
2E
100
AcDbDictionary
280
     1
281
     1
  3
ACAD_XREC_ROUNDTRIP
360
127
  0
DICTIONARY
  5
12C
330
31
100
AcDbDictionary
280
     1
281
     1
  3
ACAD_XREC_ROUNDTRIP
360
12D
  0
DICTIONARY
  5
140
330
3B
100
AcDbDictionary
280
     1
281
     1
  3
ACAD_XREC_ROUNDTRIP
360
141
  0
DICTIONARY
  5
13A
330
38
100
AcDbDictionary
280
     1
281
     1
  3
ACAD_XREC_ROUNDTRIP
360
13B
  0
DICTIONARY
  5
142
330
3C
100
AcDbDictionary
280
     1
281
     1
  3
ACAD_XREC_ROUNDTRIP
360
143
  0
DICTIONARY
  5
130
330
33
100
AcDbDictionary
280
     1
281
     1
  3
ACAD_XREC_ROUNDTRIP
360
131
  0
DICTIONARY
  5
14E
330
42
100
AcDbDictionary
280
     1
281
     1
  3
ACAD_XREC_ROUNDTRIP
360
14F
  0
DICTIONARY
  5
14C
330
41
100
AcDbDictionary
280
     1
281
     1
  3
ACAD_XREC_ROUNDTRIP
360
14D
  0
DICTIONARY
  5
146
330
3E
100
AcDbDictionary
280
     1
281
     1
  3
ACAD_XREC_ROUNDTRIP
360
147
  0
DICTIONARY
  5
148
330
3F
100
AcDbDictionary
280
     1
281
     1
  3
ACAD_XREC_ROUNDTRIP
360
149
  0
DICTIONARY
  5
138
330
37
100
AcDbDictionary
280
     1
281
     1
  3
ACAD_XREC_ROUNDTRIP
360
139
  0
DICTIONARY
  5
12A
330
30
100
AcDbDictionary
280
     1
281
     1
  3
ACAD_XREC_ROUNDTRIP
360
12B
  0
DICTIONARY
  5
14A
330
40
100
AcDbDictionary
280
     1
281
     1
  3
ACAD_XREC_ROUNDTRIP
360
14B
  0
XRECORD
  5
153
102
{ACAD_REACTORS
330
152
102
}
330
152
100
AcDbXrecord
280
     1
102
MATERIAL
148
0.0
149
0.0
149
0.0
 93
        0
 94
      127
282
     0
 72
     1
 77
     1
171
     1
175
     1
179
     1
273
     0
  0
XRECORD
  5
151
102
{ACAD_REACTORS
330
150
102
}
330
150
100
AcDbXrecord
280
     1
102
MATERIAL
148
0.0
149
0.0
149
0.0
 93
        0
 94
      127
282
     0
 72
     1
 77
     1
171
     1
175
     1
179
     1
273
     0
  0
XRECORD
  5
155
102
{ACAD_REACTORS
330
154
102
}
330
154
100
AcDbXrecord
280
     1
102
MATERIAL
148
0.0
149
0.0
149
0.0
 93
        0
 94
      127
282
     0
 72
     1
 77
     1
171
     1
175
     1
179
     1
273
     0
  0
XRECORD
  5
15B
102
{ACAD_REACTORS
330
15A
102
}
330
15A
100
AcDbXrecord
280
     1
102
ACAD_ROUNDTRIP_2010_MLEADER_STYLE
  0
CELLSTYLEMAP
  5
158
102
{ACAD_REACTORS
330
156
102
}
330
156
100
AcDbCellStyleMap
 90
        3
300
CELLSTYLE
  1
TABLEFORMAT_BEGIN
 90
        5
170
     1
 91
        0
 92
    32768
 62
   257
 93
        1
300
CONTENTFORMAT
  1
CONTENTFORMAT_BEGIN
 90
        0
 91
        0
 92
        4
 93
        0
300

 40
0.0
140
1.0
 94
        5
 62
     0
340
11
144
0.25
309
CONTENTFORMAT_END
171
     1
301
MARGIN
  1
CELLMARGIN_BEGIN
 40
0.06
 40
0.06
 40
0.06
 40
0.06
 40
0.06
 40
0.06
309
CELLMARGIN_END
 94
        6
 95
        1
302
GRIDFORMAT
  1
GRIDFORMAT_BEGIN
 90
        0
 91
        1
 62
     0
 92
       -2
340
14
 93
        0
 40
0.045
309
GRIDFORMAT_END
 95
        2
302
GRIDFORMAT
  1
GRIDFORMAT_BEGIN
 90
        0
 91
        1
 62
     0
 92
       -2
340
14
 93
        0
 40
0.045
309
GRIDFORMAT_END
 95
        4
302
GRIDFORMAT
  1
GRIDFORMAT_BEGIN
 90
        0
 91
        1
 62
     0
 92
       -2
340
14
 93
        0
 40
0.045
309
GRIDFORMAT_END
 95
        8
302
GRIDFORMAT
  1
GRIDFORMAT_BEGIN
 90
        0
 91
        1
 62
     0
 92
       -2
340
14
 93
        0
 40
0.045
309
GRIDFORMAT_END
 95
       16
302
GRIDFORMAT
  1
GRIDFORMAT_BEGIN
 90
        0
 91
        1
 62
     0
 92
       -2
340
14
 93
        0
 40
0.045
309
GRIDFORMAT_END
 95
       32
302
GRIDFORMAT
  1
GRIDFORMAT_BEGIN
 90
        0
 91
        1
 62
     0
 92
       -2
340
14
 93
        0
 40
0.045
309
GRIDFORMAT_END
309
TABLEFORMAT_END
  1
CELLSTYLE_BEGIN
 90
        1
 91
        1
300
_TITLE
309
CELLSTYLE_END
300
CELLSTYLE
  1
TABLEFORMAT_BEGIN
 90
        5
170
     1
 91
        0
 92
        0
 62
   257
 93
        1
300
CONTENTFORMAT
  1
CONTENTFORMAT_BEGIN
 90
        0
 91
        0
 92
        4
 93
        0
300

 40
0.0
140
1.0
 94
        5
 62
     0
340
11
144
0.18
309
CONTENTFORMAT_END
171
     1
301
MARGIN
  1
CELLMARGIN_BEGIN
 40
0.06
 40
0.06
 40
0.06
 40
0.06
 40
0.06
 40
0.06
309
CELLMARGIN_END
 94
        6
 95
        1
302
GRIDFORMAT
  1
GRIDFORMAT_BEGIN
 90
        0
 91
        1
 62
     0
 92
       -2
340
14
 93
        0
 40
0.045
309
GRIDFORMAT_END
 95
        2
302
GRIDFORMAT
  1
GRIDFORMAT_BEGIN
 90
        0
 91
        1
 62
     0
 92
       -2
340
14
 93
        0
 40
0.045
309
GRIDFORMAT_END
 95
        4
302
GRIDFORMAT
  1
GRIDFORMAT_BEGIN
 90
        0
 91
        1
 62
     0
 92
       -2
340
14
 93
        0
 40
0.045
309
GRIDFORMAT_END
 95
        8
302
GRIDFORMAT
  1
GRIDFORMAT_BEGIN
 90
        0
 91
        1
 62
     0
 92
       -2
340
14
 93
        0
 40
0.045
309
GRIDFORMAT_END
 95
       16
302
GRIDFORMAT
  1
GRIDFORMAT_BEGIN
 90
        0
 91
        1
 62
     0
 92
       -2
340
14
 93
        0
 40
0.045
309
GRIDFORMAT_END
 95
       32
302
GRIDFORMAT
  1
GRIDFORMAT_BEGIN
 90
        0
 91
        1
 62
     0
 92
       -2
340
14
 93
        0
 40
0.045
309
GRIDFORMAT_END
309
TABLEFORMAT_END
  1
CELLSTYLE_BEGIN
 90
        2
 91
        1
300
_HEADER
309
CELLSTYLE_END
300
CELLSTYLE
  1
TABLEFORMAT_BEGIN
 90
        5
170
     1
 91
        0
 92
        0
 62
   257
 93
        1
300
CONTENTFORMAT
  1
CONTENTFORMAT_BEGIN
 90
        0
 91
        0
 92
        4
 93
        0
300

 40
0.0
140
1.0
 94
        2
 62
     0
340
11
144
0.18
309
CONTENTFORMAT_END
171
     1
301
MARGIN
  1
CELLMARGIN_BEGIN
 40
0.06
 40
0.06
 40
0.06
 40
0.06
 40
0.06
 40
0.06
309
CELLMARGIN_END
 94
        6
 95
        1
302
GRIDFORMAT
  1
GRIDFORMAT_BEGIN
 90
        0
 91
        1
 62
     0
 92
       -2
340
14
 93
        0
 40
0.045
309
GRIDFORMAT_END
 95
        2
302
GRIDFORMAT
  1
GRIDFORMAT_BEGIN
 90
        0
 91
        1
 62
     0
 92
       -2
340
14
 93
        0
 40
0.045
309
GRIDFORMAT_END
 95
        4
302
GRIDFORMAT
  1
GRIDFORMAT_BEGIN
 90
        0
 91
        1
 62
     0
 92
       -2
340
14
 93
        0
 40
0.045
309
GRIDFORMAT_END
 95
        8
302
GRIDFORMAT
  1
GRIDFORMAT_BEGIN
 90
        0
 91
        1
 62
     0
 92
       -2
340
14
 93
        0
 40
0.045
309
GRIDFORMAT_END
 95
       16
302
GRIDFORMAT
  1
GRIDFORMAT_BEGIN
 90
        0
 91
        1
 62
     0
 92
       -2
340
14
 93
        0
 40
0.045
309
GRIDFORMAT_END
 95
       32
302
GRIDFORMAT
  1
GRIDFORMAT_BEGIN
 90
        0
 91
        1
 62
     0
 92
       -2
340
14
 93
        0
 40
0.045
309
GRIDFORMAT_END
309
TABLEFORMAT_END
  1
CELLSTYLE_BEGIN
 90
        3
 91
        2
300
_DATA
309
CELLSTYLE_END
  0
XRECORD
  5
157
102
{ACAD_REACTORS
330
156
102
}
330
156
100
AcDbXrecord
280
     1
102
ACAD_ROUNDTRIP_PRE2007_TABLESTYLE
 90
        4
 91
        0
  1

 92
        4
 93
        0
  2

 94
        4
 95
        0
  3

  0
XRECORD
  5
129
102
{ACAD_REACTORS
330
128
102
}
330
128
100
AcDbXrecord
280
     1
102
RTVSPropertyOp0
 70
     1
102
RTVSPropertyOp1
 70
     1
102
RTVSPropertyOp2
 70
     1
102
RTVSPropertyOp3
 70
     1
102
RTVSPropertyOp4
 70
     1
102
RTVSPropertyOp5
 70
     1
102
RTVSPropertyOp6
 70
     1
102
RTVSPropertyOp7
 70
     1
102
RTVSPropertyOp8
 70
     1
102
RTVSPropertyOp9
 70
     1
102
RTVSPropertyOp10
 70
     1
102
RTVSPropertyOp11
 70
     1
102
RTVSPropertyOp12
 70
     1
102
RTVSPropertyOp13
 70
     1
102
RTVSPropertyOp14
 70
     1
102
RTVSPropertyOp15
 70
     1
102
RTVSPropertyOp16
 70
     1
102
RTVSPropertyOp17
 70
     1
102
RTVSPropertyOp18
 70
     1
102
RTVSPropertyOp19
 70
     1
102
RTVSPropertyOp20
 70
     1
102
RTVSPropertyOp21
 70
     1
102
RTVSPropertyOp22
 70
     1
102
RTVSPropertyOp23
 70
     1
102
RTVSPropertyOp24
 70
     1
102
RTVSPropertyOp25
 70
     1
102
RTVSPropertyOp26
 70
     1
102
RTVSPropertyOp27
 70
     1
102
RTVSPropertyOp28
 70
     1
102
RTVSPropertyOp29
 70
     1
102
RTVSPropertyOp30
 70
     1
102
RTVSPropertyOp31
 70
     1
102
RTVSPropertyOp32
 70
     1
102
RTVSPropertyOp33
 70
     1
102
RTVSPropertyOp34
 70
     1
102
RTVSPropertyOp35
 70
     1
102
RTVSPropertyOp36
 70
     1
102
RTVSPropertyOp37
 70
     1
102
RTVSPropertyOp38
 70
     1
102
RTVSPropertyOp39
 70
     1
102
RTVSPropertyOp40
 70
     1
102
RTVSPropertyOp41
 70
     1
102
RTVSPropertyOp42
 70
     1
102
RTVSPropertyOp43
 70
     1
102
RTVSPropertyOp44
 70
     1
102
RTVSPropertyOp45
 70
     1
102
RTVSPropertyOp46
 70
     1
102
RTVSPropertyOp47
 70
     1
102
RTVSPropertyOp48
 70
     1
102
RTVSPropertyOp49
 70
     1
102
RTVSPropertyOp50
 70
     1
102
RTVSPropertyOp51
 70
     0
102
RTVSPropertyOp52
 70
     0
102
RTVSPropertyOp53
 70
     1
102
RTVSPropertyOp54
 70
     1
102
RTVSPropertyOp55
 70
     1
102
RTVSPropertyOp56
 70
     1
102
RTVSPropertyOp57
 70
     1
102
RTVSPost2010Prop28
280
     1
102
RTVSPost2010PropOp28
 70
     1
102
RTVSPost2010Prop29
280
     1
102
RTVSPost2010PropOp29
 70
     1
102
RTVSPost2010Prop30
280
     0
102
RTVSPost2010PropOp30
 70
     1
102
RTVSPost2010Prop31
280
     0
102
RTVSPost2010PropOp31
 70
     1
102
RTVSPost2010Prop32
280
     0
102
RTVSPost2010PropOp32
 70
     1
102
RTVSPost2010Prop33
280
     0
102
RTVSPost2010PropOp33
 70
     1
102
RTVSPost2010Prop34
280
     0
102
RTVSPost2010PropOp34
 70
     1
102
RTVSPost2010Prop35
280
     0
102
RTVSPost2010PropOp35
 70
     1
102
RTVSPost2010Prop36
280
     0
102
RTVSPost2010PropOp36
 70
     1
102
RTVSPost2010Prop37
 90
       50
102
RTVSPost2010PropOp37
 70
     1
102
RTVSPost2010Prop38
140
0.0
102
RTVSPost2010PropOp38
 70
     1
102
RTVSPost2010Prop39
140
1.0
102
RTVSPost2010PropOp39
 70
     1
102
RTVSPost2010Prop40
 90
        0
102
RTVSPost2010PropOp40
 70
     1
102
RTVSPost2010Prop41ColorIndex
 90
       18
102
RTVSPost2010Prop41ColorRGB
 90
        0
102
RTVSPost2010PropOp41
 70
     1
102
RTVSPost2010Prop42
 90
       50
102
RTVSPost2010PropOp42
 70
     1
102
RTVSPost2010Prop43
 90
        3
102
RTVSPost2010PropOp43
 70
     1
102
RTVSPost2010Prop44ColorIndex
 90
        5
102
RTVSPost2010Prop44ColorRGB
 90
      255
102
RTVSPost2010PropOp44
 70
     1
102
RTVSPost2010Prop45
280
     0
102
RTVSPost2010PropOp45
 70
     1
102
RTVSPost2010Prop46
 90
       50
102
RTVSPost2010PropOp46
 70
     1
102
RTVSPost2010Prop47
 90
       50
102
RTVSPost2010PropOp47
 70
     1
102
RTVSPost2010Prop48
 90
       50
102
RTVSPost2010PropOp48
 70
     1
102
RTVSPost2010Prop49
280
     0
102
RTVSPost2010PropOp49
 70
     1
102
RTVSPost2010Prop50
 90
       50
102
RTVSPost2010PropOp50
 70
     1
102
RTVSPost2010Prop51ColorIndex
 90
      256
102
RTVSPost2010Prop51ColorRGB
 90
-16777216
102
RTVSPost2010PropOp51
 70
     0
102
RTVSPost2010Prop52
140
1.0
102
RTVSPost2010PropOp52
 70
     0
102
RTVSPost2010Prop53
 90
        2
102
RTVSPost2010PropOp53
 70
     1
102
RTVSPost2010Prop54
  1
strokes_ogs.tif
102
RTVSPost2010PropOp54
 70
     1
102
RTVSPost2010Prop55
280
     0
102
RTVSPost2010PropOp55
 70
     1
102
RTVSPost2010Prop56
140
1.0
102
RTVSPost2010PropOp56
 70
     1
102
RTVSPost2010Prop57
140
1.0
102
RTVSPost2010PropOp57
 70
     1
  0
XRECORD
  5
12F
102
{ACAD_REACTORS
330
12E
102
}
330
12E
100
AcDbXrecord
280
     1
102
RTVSPropertyOp0
 70
     1
102
RTVSPropertyOp1
 70
     1
102
RTVSPropertyOp2
 70
     1
102
RTVSPropertyOp3
 70
     1
102
RTVSPropertyOp4
 70
     1
102
RTVSPropertyOp5
 70
     1
102
RTVSPropertyOp6
 70
     1
102
RTVSPropertyOp7
 70
     1
102
RTVSPropertyOp8
 70
     1
102
RTVSPropertyOp9
 70
     1
102
RTVSPropertyOp10
 70
     1
102
RTVSPropertyOp11
 70
     1
102
RTVSPropertyOp12
 70
     1
102
RTVSPropertyOp13
 70
     1
102
RTVSPropertyOp14
 70
     1
102
RTVSPropertyOp15
 70
     1
102
RTVSPropertyOp16
 70
     1
102
RTVSPropertyOp17
 70
     1
102
RTVSPropertyOp18
 70
     1
102
RTVSPropertyOp19
 70
     1
102
RTVSPropertyOp20
 70
     1
102
RTVSPropertyOp21
 70
     1
102
RTVSPropertyOp22
 70
     1
102
RTVSPropertyOp23
 70
     1
102
RTVSPropertyOp24
 70
     1
102
RTVSPropertyOp25
 70
     1
102
RTVSPropertyOp26
 70
     1
102
RTVSPropertyOp27
 70
     1
102
RTVSPropertyOp28
 70
     1
102
RTVSPropertyOp29
 70
     1
102
RTVSPropertyOp30
 70
     1
102
RTVSPropertyOp31
 70
     1
102
RTVSPropertyOp32
 70
     1
102
RTVSPropertyOp33
 70
     1
102
RTVSPropertyOp34
 70
     1
102
RTVSPropertyOp35
 70
     1
102
RTVSPropertyOp36
 70
     1
102
RTVSPropertyOp37
 70
     1
102
RTVSPropertyOp38
 70
     1
102
RTVSPropertyOp39
 70
     1
102
RTVSPropertyOp40
 70
     1
102
RTVSPropertyOp41
 70
     1
102
RTVSPropertyOp42
 70
     1
102
RTVSPropertyOp43
 70
     1
102
RTVSPropertyOp44
 70
     1
102
RTVSPropertyOp45
 70
     1
102
RTVSPropertyOp46
 70
     1
102
RTVSPropertyOp47
 70
     1
102
RTVSPropertyOp48
 70
     1
102
RTVSPropertyOp49
 70
     1
102
RTVSPropertyOp50
 70
     1
102
RTVSPropertyOp51
 70
     0
102
RTVSPropertyOp52
 70
     0
102
RTVSPropertyOp53
 70
     1
102
RTVSPropertyOp54
 70
     1
102
RTVSPropertyOp55
 70
     1
102
RTVSPropertyOp56
 70
     1
102
RTVSPropertyOp57
 70
     1
102
RTVSPost2010Prop28
280
     0
102
RTVSPost2010PropOp28
 70
     1
102
RTVSPost2010Prop29
280
     1
102
RTVSPost2010PropOp29
 70
     1
102
RTVSPost2010Prop30
280
     1
102
RTVSPost2010PropOp30
 70
     1
102
RTVSPost2010Prop31
280
     0
102
RTVSPost2010PropOp31
 70
     1
102
RTVSPost2010Prop32
280
     0
102
RTVSPost2010PropOp32
 70
     1
102
RTVSPost2010Prop33
280
     0
102
RTVSPost2010PropOp33
 70
     1
102
RTVSPost2010Prop34
280
     0
102
RTVSPost2010PropOp34
 70
     1
102
RTVSPost2010Prop35
280
     0
102
RTVSPost2010PropOp35
 70
     1
102
RTVSPost2010Prop36
280
     0
102
RTVSPost2010PropOp36
 70
     1
102
RTVSPost2010Prop37
 90
       50
102
RTVSPost2010PropOp37
 70
     1
102
RTVSPost2010Prop38
140
0.0
102
RTVSPost2010PropOp38
 70
     1
102
RTVSPost2010Prop39
140
1.0
102
RTVSPost2010PropOp39
 70
     1
102
RTVSPost2010Prop40
 90
        0
102
RTVSPost2010PropOp40
 70
     1
102
RTVSPost2010Prop41ColorIndex
 90
       18
102
RTVSPost2010Prop41ColorRGB
 90
        0
102
RTVSPost2010PropOp41
 70
     1
102
RTVSPost2010Prop42
 90
       50
102
RTVSPost2010PropOp42
 70
     1
102
RTVSPost2010Prop43
 90
        3
102
RTVSPost2010PropOp43
 70
     1
102
RTVSPost2010Prop44ColorIndex
 90
        5
102
RTVSPost2010Prop44ColorRGB
 90
      255
102
RTVSPost2010PropOp44
 70
     1
102
RTVSPost2010Prop45
280
     0
102
RTVSPost2010PropOp45
 70
     1
102
RTVSPost2010Prop46
 90
       50
102
RTVSPost2010PropOp46
 70
     1
102
RTVSPost2010Prop47
 90
       50
102
RTVSPost2010PropOp47
 70
     1
102
RTVSPost2010Prop48
 90
       50
102
RTVSPost2010PropOp48
 70
     1
102
RTVSPost2010Prop49
280
     0
102
RTVSPost2010PropOp49
 70
     1
102
RTVSPost2010Prop50
 90
       50
102
RTVSPost2010PropOp50
 70
     1
102
RTVSPost2010Prop51ColorIndex
 90
      256
102
RTVSPost2010Prop51ColorRGB
 90
-16777216
102
RTVSPost2010PropOp51
 70
     0
102
RTVSPost2010Prop52
140
1.0
102
RTVSPost2010PropOp52
 70
     0
102
RTVSPost2010Prop53
 90
        2
102
RTVSPost2010PropOp53
 70
     1
102
RTVSPost2010Prop54
  1
strokes_ogs.tif
102
RTVSPost2010PropOp54
 70
     1
102
RTVSPost2010Prop55
280
     0
102
RTVSPost2010PropOp55
 70
     1
102
RTVSPost2010Prop56
140
1.0
102
RTVSPost2010PropOp56
 70
     1
102
RTVSPost2010Prop57
140
1.0
102
RTVSPost2010PropOp57
 70
     1
  0
XRECORD
  5
137
102
{ACAD_REACTORS
330
136
102
}
330
136
100
AcDbXrecord
280
     1
102
RTVSPropertyOp0
 70
     1
102
RTVSPropertyOp1
 70
     1
102
RTVSPropertyOp2
 70
     1
102
RTVSPropertyOp3
 70
     1
102
RTVSPropertyOp4
 70
     1
102
RTVSPropertyOp5
 70
     1
102
RTVSPropertyOp6
 70
     1
102
RTVSPropertyOp7
 70
     1
102
RTVSPropertyOp8
 70
     1
102
RTVSPropertyOp9
 70
     1
102
RTVSPropertyOp10
 70
     1
102
RTVSPropertyOp11
 70
     1
102
RTVSPropertyOp12
 70
     1
102
RTVSPropertyOp13
 70
     1
102
RTVSPropertyOp14
 70
     1
102
RTVSPropertyOp15
 70
     1
102
RTVSPropertyOp16
 70
     1
102
RTVSPropertyOp17
 70
     1
102
RTVSPropertyOp18
 70
     1
102
RTVSPropertyOp19
 70
     1
102
RTVSPropertyOp20
 70
     1
102
RTVSPropertyOp21
 70
     1
102
RTVSPropertyOp22
 70
     1
102
RTVSPropertyOp23
 70
     1
102
RTVSPropertyOp24
 70
     1
102
RTVSPropertyOp25
 70
     1
102
RTVSPropertyOp26
 70
     1
102
RTVSPropertyOp27
 70
     1
102
RTVSPropertyOp28
 70
     1
102
RTVSPropertyOp29
 70
     1
102
RTVSPropertyOp30
 70
     1
102
RTVSPropertyOp31
 70
     1
102
RTVSPropertyOp32
 70
     1
102
RTVSPropertyOp33
 70
     1
102
RTVSPropertyOp34
 70
     1
102
RTVSPropertyOp35
 70
     1
102
RTVSPropertyOp36
 70
     1
102
RTVSPropertyOp37
 70
     1
102
RTVSPropertyOp38
 70
     1
102
RTVSPropertyOp39
 70
     1
102
RTVSPropertyOp40
 70
     1
102
RTVSPropertyOp41
 70
     1
102
RTVSPropertyOp42
 70
     1
102
RTVSPropertyOp43
 70
     1
102
RTVSPropertyOp44
 70
     1
102
RTVSPropertyOp45
 70
     1
102
RTVSPropertyOp46
 70
     1
102
RTVSPropertyOp47
 70
     1
102
RTVSPropertyOp48
 70
     1
102
RTVSPropertyOp49
 70
     1
102
RTVSPropertyOp50
 70
     1
102
RTVSPropertyOp51
 70
     0
102
RTVSPropertyOp52
 70
     0
102
RTVSPropertyOp53
 70
     1
102
RTVSPropertyOp54
 70
     1
102
RTVSPropertyOp55
 70
     1
102
RTVSPropertyOp56
 70
     1
102
RTVSPropertyOp57
 70
     1
102
RTVSPost2010Prop28
280
     0
102
RTVSPost2010PropOp28
 70
     1
102
RTVSPost2010Prop29
280
     1
102
RTVSPost2010PropOp29
 70
     1
102
RTVSPost2010Prop30
280
     1
102
RTVSPost2010PropOp30
 70
     1
102
RTVSPost2010Prop31
280
     0
102
RTVSPost2010PropOp31
 70
     1
102
RTVSPost2010Prop32
280
     0
102
RTVSPost2010PropOp32
 70
     1
102
RTVSPost2010Prop33
280
     0
102
RTVSPost2010PropOp33
 70
     1
102
RTVSPost2010Prop34
280
     0
102
RTVSPost2010PropOp34
 70
     1
102
RTVSPost2010Prop35
280
     0
102
RTVSPost2010PropOp35
 70
     1
102
RTVSPost2010Prop36
280
     0
102
RTVSPost2010PropOp36
 70
     1
102
RTVSPost2010Prop37
 90
       50
102
RTVSPost2010PropOp37
 70
     1
102
RTVSPost2010Prop38
140
0.0
102
RTVSPost2010PropOp38
 70
     1
102
RTVSPost2010Prop39
140
1.0
102
RTVSPost2010PropOp39
 70
     1
102
RTVSPost2010Prop40
 90
        0
102
RTVSPost2010PropOp40
 70
     1
102
RTVSPost2010Prop41ColorIndex
 90
       18
102
RTVSPost2010Prop41ColorRGB
 90
        0
102
RTVSPost2010PropOp41
 70
     1
102
RTVSPost2010Prop42
 90
       50
102
RTVSPost2010PropOp42
 70
     1
102
RTVSPost2010Prop43
 90
        3
102
RTVSPost2010PropOp43
 70
     1
102
RTVSPost2010Prop44ColorIndex
 90
        5
102
RTVSPost2010Prop44ColorRGB
 90
      255
102
RTVSPost2010PropOp44
 70
     1
102
RTVSPost2010Prop45
280
     0
102
RTVSPost2010PropOp45
 70
     1
102
RTVSPost2010Prop46
 90
       50
102
RTVSPost2010PropOp46
 70
     1
102
RTVSPost2010Prop47
 90
       50
102
RTVSPost2010PropOp47
 70
     1
102
RTVSPost2010Prop48
 90
       50
102
RTVSPost2010PropOp48
 70
     1
102
RTVSPost2010Prop49
280
     0
102
RTVSPost2010PropOp49
 70
     1
102
RTVSPost2010Prop50
 90
       50
102
RTVSPost2010PropOp50
 70
     1
102
RTVSPost2010Prop51ColorIndex
 90
      256
102
RTVSPost2010Prop51ColorRGB
 90
-16777216
102
RTVSPost2010PropOp51
 70
     0
102
RTVSPost2010Prop52
140
1.0
102
RTVSPost2010PropOp52
 70
     0
102
RTVSPost2010Prop53
 90
        2
102
RTVSPost2010PropOp53
 70
     1
102
RTVSPost2010Prop54
  1
strokes_ogs.tif
102
RTVSPost2010PropOp54
 70
     1
102
RTVSPost2010Prop55
280
     0
102
RTVSPost2010PropOp55
 70
     1
102
RTVSPost2010Prop56
140
1.0
102
RTVSPost2010PropOp56
 70
     1
102
RTVSPost2010Prop57
140
1.0
102
RTVSPost2010PropOp57
 70
     1
  0
XRECORD
  5
13F
102
{ACAD_REACTORS
330
13E
102
}
330
13E
100
AcDbXrecord
280
     1
102
RTVSPropertyOp0
 70
     1
102
RTVSPropertyOp1
 70
     1
102
RTVSPropertyOp2
 70
     1
102
RTVSPropertyOp3
 70
     1
102
RTVSPropertyOp4
 70
     1
102
RTVSPropertyOp5
 70
     1
102
RTVSPropertyOp6
 70
     1
102
RTVSPropertyOp7
 70
     1
102
RTVSPropertyOp8
 70
     1
102
RTVSPropertyOp9
 70
     1
102
RTVSPropertyOp10
 70
     1
102
RTVSPropertyOp11
 70
     1
102
RTVSPropertyOp12
 70
     1
102
RTVSPropertyOp13
 70
     1
102
RTVSPropertyOp14
 70
     1
102
RTVSPropertyOp15
 70
     1
102
RTVSPropertyOp16
 70
     1
102
RTVSPropertyOp17
 70
     1
102
RTVSPropertyOp18
 70
     1
102
RTVSPropertyOp19
 70
     1
102
RTVSPropertyOp20
 70
     1
102
RTVSPropertyOp21
 70
     1
102
RTVSPropertyOp22
 70
     1
102
RTVSPropertyOp23
 70
     1
102
RTVSPropertyOp24
 70
     1
102
RTVSPropertyOp25
 70
     1
102
RTVSPropertyOp26
 70
     1
102
RTVSPropertyOp27
 70
     1
102
RTVSPropertyOp28
 70
     1
102
RTVSPropertyOp29
 70
     1
102
RTVSPropertyOp30
 70
     1
102
RTVSPropertyOp31
 70
     1
102
RTVSPropertyOp32
 70
     1
102
RTVSPropertyOp33
 70
     1
102
RTVSPropertyOp34
 70
     1
102
RTVSPropertyOp35
 70
     1
102
RTVSPropertyOp36
 70
     1
102
RTVSPropertyOp37
 70
     1
102
RTVSPropertyOp38
 70
     1
102
RTVSPropertyOp39
 70
     1
102
RTVSPropertyOp40
 70
     1
102
RTVSPropertyOp41
 70
     1
102
RTVSPropertyOp42
 70
     1
102
RTVSPropertyOp43
 70
     1
102
RTVSPropertyOp44
 70
     1
102
RTVSPropertyOp45
 70
     1
102
RTVSPropertyOp46
 70
     1
102
RTVSPropertyOp47
 70
     1
102
RTVSPropertyOp48
 70
     1
102
RTVSPropertyOp49
 70
     1
102
RTVSPropertyOp50
 70
     1
102
RTVSPropertyOp51
 70
     0
102
RTVSPropertyOp52
 70
     0
102
RTVSPropertyOp53
 70
     1
102
RTVSPropertyOp54
 70
     1
102
RTVSPropertyOp55
 70
     1
102
RTVSPropertyOp56
 70
     1
102
RTVSPropertyOp57
 70
     1
102
RTVSPost2010Prop28
280
     0
102
RTVSPost2010PropOp28
 70
     1
102
RTVSPost2010Prop29
280
     1
102
RTVSPost2010PropOp29
 70
     1
102
RTVSPost2010Prop30
280
     1
102
RTVSPost2010PropOp30
 70
     1
102
RTVSPost2010Prop31
280
     0
102
RTVSPost2010PropOp31
 70
     1
102
RTVSPost2010Prop32
280
     0
102
RTVSPost2010PropOp32
 70
     1
102
RTVSPost2010Prop33
280
     0
102
RTVSPost2010PropOp33
 70
     1
102
RTVSPost2010Prop34
280
     0
102
RTVSPost2010PropOp34
 70
     1
102
RTVSPost2010Prop35
280
     0
102
RTVSPost2010PropOp35
 70
     1
102
RTVSPost2010Prop36
280
     0
102
RTVSPost2010PropOp36
 70
     1
102
RTVSPost2010Prop37
 90
       50
102
RTVSPost2010PropOp37
 70
     1
102
RTVSPost2010Prop38
140
0.0
102
RTVSPost2010PropOp38
 70
     1
102
RTVSPost2010Prop39
140
1.0
102
RTVSPost2010PropOp39
 70
     1
102
RTVSPost2010Prop40
 90
        0
102
RTVSPost2010PropOp40
 70
     1
102
RTVSPost2010Prop41ColorIndex
 90
       18
102
RTVSPost2010Prop41ColorRGB
 90
        0
102
RTVSPost2010PropOp41
 70
     1
102
RTVSPost2010Prop42
 90
       50
102
RTVSPost2010PropOp42
 70
     1
102
RTVSPost2010Prop43
 90
        3
102
RTVSPost2010PropOp43
 70
     1
102
RTVSPost2010Prop44ColorIndex
 90
        5
102
RTVSPost2010Prop44ColorRGB
 90
      255
102
RTVSPost2010PropOp44
 70
     1
102
RTVSPost2010Prop45
280
     0
102
RTVSPost2010PropOp45
 70
     1
102
RTVSPost2010Prop46
 90
       50
102
RTVSPost2010PropOp46
 70
     1
102
RTVSPost2010Prop47
 90
       50
102
RTVSPost2010PropOp47
 70
     1
102
RTVSPost2010Prop48
 90
       50
102
RTVSPost2010PropOp48
 70
     1
102
RTVSPost2010Prop49
280
     0
102
RTVSPost2010PropOp49
 70
     1
102
RTVSPost2010Prop50
 90
       50
102
RTVSPost2010PropOp50
 70
     1
102
RTVSPost2010Prop51ColorIndex
 90
      256
102
RTVSPost2010Prop51ColorRGB
 90
-16777216
102
RTVSPost2010PropOp51
 70
     0
102
RTVSPost2010Prop52
140
1.0
102
RTVSPost2010PropOp52
 70
     0
102
RTVSPost2010Prop53
 90
        2
102
RTVSPost2010PropOp53
 70
     1
102
RTVSPost2010Prop54
  1
strokes_ogs.tif
102
RTVSPost2010PropOp54
 70
     1
102
RTVSPost2010Prop55
280
     0
102
RTVSPost2010PropOp55
 70
     1
102
RTVSPost2010Prop56
140
1.0
102
RTVSPost2010PropOp56
 70
     1
102
RTVSPost2010Prop57
140
1.0
102
RTVSPost2010PropOp57
 70
     1
  0
XRECORD
  5
133
102
{ACAD_REACTORS
330
132
102
}
330
132
100
AcDbXrecord
280
     1
102
RTVSPropertyOp0
 70
     1
102
RTVSPropertyOp1
 70
     1
102
RTVSPropertyOp2
 70
     1
102
RTVSPropertyOp3
 70
     1
102
RTVSPropertyOp4
 70
     1
102
RTVSPropertyOp5
 70
     1
102
RTVSPropertyOp6
 70
     1
102
RTVSPropertyOp7
 70
     1
102
RTVSPropertyOp8
 70
     1
102
RTVSPropertyOp9
 70
     1
102
RTVSPropertyOp10
 70
     1
102
RTVSPropertyOp11
 70
     1
102
RTVSPropertyOp12
 70
     1
102
RTVSPropertyOp13
 70
     1
102
RTVSPropertyOp14
 70
     1
102
RTVSPropertyOp15
 70
     1
102
RTVSPropertyOp16
 70
     1
102
RTVSPropertyOp17
 70
     1
102
RTVSPropertyOp18
 70
     1
102
RTVSPropertyOp19
 70
     1
102
RTVSPropertyOp20
 70
     1
102
RTVSPropertyOp21
 70
     1
102
RTVSPropertyOp22
 70
     1
102
RTVSPropertyOp23
 70
     1
102
RTVSPropertyOp24
 70
     1
102
RTVSPropertyOp25
 70
     1
102
RTVSPropertyOp26
 70
     1
102
RTVSPropertyOp27
 70
     1
102
RTVSPropertyOp28
 70
     1
102
RTVSPropertyOp29
 70
     1
102
RTVSPropertyOp30
 70
     1
102
RTVSPropertyOp31
 70
     1
102
RTVSPropertyOp32
 70
     1
102
RTVSPropertyOp33
 70
     1
102
RTVSPropertyOp34
 70
     1
102
RTVSPropertyOp35
 70
     1
102
RTVSPropertyOp36
 70
     1
102
RTVSPropertyOp37
 70
     1
102
RTVSPropertyOp38
 70
     1
102
RTVSPropertyOp39
 70
     1
102
RTVSPropertyOp40
 70
     1
102
RTVSPropertyOp41
 70
     1
102
RTVSPropertyOp42
 70
     1
102
RTVSPropertyOp43
 70
     1
102
RTVSPropertyOp44
 70
     1
102
RTVSPropertyOp45
 70
     1
102
RTVSPropertyOp46
 70
     1
102
RTVSPropertyOp47
 70
     1
102
RTVSPropertyOp48
 70
     1
102
RTVSPropertyOp49
 70
     1
102
RTVSPropertyOp50
 70
     1
102
RTVSPropertyOp51
 70
     0
102
RTVSPropertyOp52
 70
     0
102
RTVSPropertyOp53
 70
     1
102
RTVSPropertyOp54
 70
     1
102
RTVSPropertyOp55
 70
     1
102
RTVSPropertyOp56
 70
     1
102
RTVSPropertyOp57
 70
     1
102
RTVSPost2010Prop28
280
     0
102
RTVSPost2010PropOp28
 70
     1
102
RTVSPost2010Prop29
280
     1
102
RTVSPost2010PropOp29
 70
     1
102
RTVSPost2010Prop30
280
     1
102
RTVSPost2010PropOp30
 70
     1
102
RTVSPost2010Prop31
280
     0
102
RTVSPost2010PropOp31
 70
     1
102
RTVSPost2010Prop32
280
     0
102
RTVSPost2010PropOp32
 70
     1
102
RTVSPost2010Prop33
280
     0
102
RTVSPost2010PropOp33
 70
     1
102
RTVSPost2010Prop34
280
     0
102
RTVSPost2010PropOp34
 70
     1
102
RTVSPost2010Prop35
280
     0
102
RTVSPost2010PropOp35
 70
     1
102
RTVSPost2010Prop36
280
     0
102
RTVSPost2010PropOp36
 70
     1
102
RTVSPost2010Prop37
 90
       50
102
RTVSPost2010PropOp37
 70
     1
102
RTVSPost2010Prop38
140
0.0
102
RTVSPost2010PropOp38
 70
     1
102
RTVSPost2010Prop39
140
1.0
102
RTVSPost2010PropOp39
 70
     1
102
RTVSPost2010Prop40
 90
        0
102
RTVSPost2010PropOp40
 70
     1
102
RTVSPost2010Prop41ColorIndex
 90
       18
102
RTVSPost2010Prop41ColorRGB
 90
        0
102
RTVSPost2010PropOp41
 70
     1
102
RTVSPost2010Prop42
 90
       50
102
RTVSPost2010PropOp42
 70
     1
102
RTVSPost2010Prop43
 90
        3
102
RTVSPost2010PropOp43
 70
     1
102
RTVSPost2010Prop44ColorIndex
 90
        5
102
RTVSPost2010Prop44ColorRGB
 90
      255
102
RTVSPost2010PropOp44
 70
     1
102
RTVSPost2010Prop45
280
     0
102
RTVSPost2010PropOp45
 70
     1
102
RTVSPost2010Prop46
 90
       50
102
RTVSPost2010PropOp46
 70
     1
102
RTVSPost2010Prop47
 90
       50
102
RTVSPost2010PropOp47
 70
     1
102
RTVSPost2010Prop48
 90
       50
102
RTVSPost2010PropOp48
 70
     1
102
RTVSPost2010Prop49
280
     0
102
RTVSPost2010PropOp49
 70
     1
102
RTVSPost2010Prop50
 90
       50
102
RTVSPost2010PropOp50
 70
     1
102
RTVSPost2010Prop51ColorIndex
 90
      256
102
RTVSPost2010Prop51ColorRGB
 90
-16777216
102
RTVSPost2010PropOp51
 70
     0
102
RTVSPost2010Prop52
140
1.0
102
RTVSPost2010PropOp52
 70
     0
102
RTVSPost2010Prop53
 90
        2
102
RTVSPost2010PropOp53
 70
     1
102
RTVSPost2010Prop54
  1
strokes_ogs.tif
102
RTVSPost2010PropOp54
 70
     1
102
RTVSPost2010Prop55
280
     0
102
RTVSPost2010PropOp55
 70
     1
102
RTVSPost2010Prop56
140
1.0
102
RTVSPost2010PropOp56
 70
     1
102
RTVSPost2010Prop57
140
1.0
102
RTVSPost2010PropOp57
 70
     1
  0
XRECORD
  5
135
102
{ACAD_REACTORS
330
134
102
}
330
134
100
AcDbXrecord
280
     1
102
RTVSPropertyOp0
 70
     1
102
RTVSPropertyOp1
 70
     1
102
RTVSPropertyOp2
 70
     1
102
RTVSPropertyOp3
 70
     1
102
RTVSPropertyOp4
 70
     1
102
RTVSPropertyOp5
 70
     1
102
RTVSPropertyOp6
 70
     1
102
RTVSPropertyOp7
 70
     1
102
RTVSPropertyOp8
 70
     1
102
RTVSPropertyOp9
 70
     1
102
RTVSPropertyOp10
 70
     1
102
RTVSPropertyOp11
 70
     1
102
RTVSPropertyOp12
 70
     1
102
RTVSPropertyOp13
 70
     1
102
RTVSPropertyOp14
 70
     1
102
RTVSPropertyOp15
 70
     1
102
RTVSPropertyOp16
 70
     1
102
RTVSPropertyOp17
 70
     1
102
RTVSPropertyOp18
 70
     1
102
RTVSPropertyOp19
 70
     1
102
RTVSPropertyOp20
 70
     1
102
RTVSPropertyOp21
 70
     1
102
RTVSPropertyOp22
 70
     1
102
RTVSPropertyOp23
 70
     1
102
RTVSPropertyOp24
 70
     1
102
RTVSPropertyOp25
 70
     1
102
RTVSPropertyOp26
 70
     1
102
RTVSPropertyOp27
 70
     1
102
RTVSPropertyOp28
 70
     1
102
RTVSPropertyOp29
 70
     1
102
RTVSPropertyOp30
 70
     1
102
RTVSPropertyOp31
 70
     1
102
RTVSPropertyOp32
 70
     1
102
RTVSPropertyOp33
 70
     1
102
RTVSPropertyOp34
 70
     1
102
RTVSPropertyOp35
 70
     1
102
RTVSPropertyOp36
 70
     1
102
RTVSPropertyOp37
 70
     1
102
RTVSPropertyOp38
 70
     1
102
RTVSPropertyOp39
 70
     1
102
RTVSPropertyOp40
 70
     1
102
RTVSPropertyOp41
 70
     1
102
RTVSPropertyOp42
 70
     1
102
RTVSPropertyOp43
 70
     1
102
RTVSPropertyOp44
 70
     1
102
RTVSPropertyOp45
 70
     1
102
RTVSPropertyOp46
 70
     1
102
RTVSPropertyOp47
 70
     1
102
RTVSPropertyOp48
 70
     1
102
RTVSPropertyOp49
 70
     1
102
RTVSPropertyOp50
 70
     1
102
RTVSPropertyOp51
 70
     0
102
RTVSPropertyOp52
 70
     0
102
RTVSPropertyOp53
 70
     1
102
RTVSPropertyOp54
 70
     1
102
RTVSPropertyOp55
 70
     1
102
RTVSPropertyOp56
 70
     1
102
RTVSPropertyOp57
 70
     1
102
RTVSPost2010Prop28
280
     0
102
RTVSPost2010PropOp28
 70
     1
102
RTVSPost2010Prop29
280
     1
102
RTVSPost2010PropOp29
 70
     1
102
RTVSPost2010Prop30
280
     1
102
RTVSPost2010PropOp30
 70
     1
102
RTVSPost2010Prop31
280
     0
102
RTVSPost2010PropOp31
 70
     1
102
RTVSPost2010Prop32
280
     0
102
RTVSPost2010PropOp32
 70
     1
102
RTVSPost2010Prop33
280
     0
102
RTVSPost2010PropOp33
 70
     1
102
RTVSPost2010Prop34
280
     0
102
RTVSPost2010PropOp34
 70
     1
102
RTVSPost2010Prop35
280
     0
102
RTVSPost2010PropOp35
 70
     1
102
RTVSPost2010Prop36
280
     0
102
RTVSPost2010PropOp36
 70
     1
102
RTVSPost2010Prop37
 90
       50
102
RTVSPost2010PropOp37
 70
     1
102
RTVSPost2010Prop38
140
0.0
102
RTVSPost2010PropOp38
 70
     1
102
RTVSPost2010Prop39
140
1.0
102
RTVSPost2010PropOp39
 70
     1
102
RTVSPost2010Prop40
 90
        0
102
RTVSPost2010PropOp40
 70
     1
102
RTVSPost2010Prop41ColorIndex
 90
       18
102
RTVSPost2010Prop41ColorRGB
 90
        0
102
RTVSPost2010PropOp41
 70
     1
102
RTVSPost2010Prop42
 90
       50
102
RTVSPost2010PropOp42
 70
     1
102
RTVSPost2010Prop43
 90
        3
102
RTVSPost2010PropOp43
 70
     1
102
RTVSPost2010Prop44ColorIndex
 90
        5
102
RTVSPost2010Prop44ColorRGB
 90
      255
102
RTVSPost2010PropOp44
 70
     1
102
RTVSPost2010Prop45
280
     0
102
RTVSPost2010PropOp45
 70
     1
102
RTVSPost2010Prop46
 90
       50
102
RTVSPost2010PropOp46
 70
     1
102
RTVSPost2010Prop47
 90
       50
102
RTVSPost2010PropOp47
 70
     1
102
RTVSPost2010Prop48
 90
       50
102
RTVSPost2010PropOp48
 70
     1
102
RTVSPost2010Prop49
280
     0
102
RTVSPost2010PropOp49
 70
     1
102
RTVSPost2010Prop50
 90
       50
102
RTVSPost2010PropOp50
 70
     1
102
RTVSPost2010Prop51ColorIndex
 90
      256
102
RTVSPost2010Prop51ColorRGB
 90
-16777216
102
RTVSPost2010PropOp51
 70
     0
102
RTVSPost2010Prop52
140
1.0
102
RTVSPost2010PropOp52
 70
     0
102
RTVSPost2010Prop53
 90
        2
102
RTVSPost2010PropOp53
 70
     1
102
RTVSPost2010Prop54
  1
strokes_ogs.tif
102
RTVSPost2010PropOp54
 70
     1
102
RTVSPost2010Prop55
280
     0
102
RTVSPost2010PropOp55
 70
     1
102
RTVSPost2010Prop56
140
1.0
102
RTVSPost2010PropOp56
 70
     1
102
RTVSPost2010Prop57
140
1.0
102
RTVSPost2010PropOp57
 70
     1
  0
XRECORD
  5
145
102
{ACAD_REACTORS
330
144
102
}
330
144
100
AcDbXrecord
280
     1
102
RTVSPropertyOp0
 70
     0
102
RTVSPropertyOp1
 70
     0
102
RTVSPropertyOp2
 70
     0
102
RTVSPropertyOp3
 70
     0
102
RTVSPropertyOp4
 70
     0
102
RTVSPropertyOp5
 70
     0
102
RTVSPropertyOp6
 70
     0
102
RTVSPropertyOp7
 70
     0
102
RTVSPropertyOp8
 70
     0
102
RTVSPropertyOp9
 70
     0
102
RTVSPropertyOp10
 70
     0
102
RTVSPropertyOp11
 70
     0
102
RTVSPropertyOp12
 70
     0
102
RTVSPropertyOp13
 70
     0
102
RTVSPropertyOp14
 70
     2
102
RTVSPropertyOp15
 70
     0
102
RTVSPropertyOp16
 70
     0
102
RTVSPropertyOp17
 70
     0
102
RTVSPropertyOp18
 70
     0
102
RTVSPropertyOp19
 70
     0
102
RTVSPropertyOp20
 70
     0
102
RTVSPropertyOp21
 70
     0
102
RTVSPropertyOp22
 70
     0
102
RTVSPropertyOp23
 70
     0
102
RTVSPropertyOp24
 70
     0
102
RTVSPropertyOp25
 70
     0
102
RTVSPropertyOp26
 70
     0
102
RTVSPropertyOp27
 70
     0
102
RTVSPropertyOp28
 70
     0
102
RTVSPropertyOp29
 70
     0
102
RTVSPropertyOp30
 70
     0
102
RTVSPropertyOp31
 70
     0
102
RTVSPropertyOp32
 70
     0
102
RTVSPropertyOp33
 70
     0
102
RTVSPropertyOp34
 70
     0
102
RTVSPropertyOp35
 70
     0
102
RTVSPropertyOp36
 70
     0
102
RTVSPropertyOp37
 70
     0
102
RTVSPropertyOp38
 70
     0
102
RTVSPropertyOp39
 70
     0
102
RTVSPropertyOp40
 70
     0
102
RTVSPropertyOp41
 70
     0
102
RTVSPropertyOp42
 70
     0
102
RTVSPropertyOp43
 70
     0
102
RTVSPropertyOp44
 70
     0
102
RTVSPropertyOp45
 70
     0
102
RTVSPropertyOp46
 70
     0
102
RTVSPropertyOp47
 70
     0
102
RTVSPropertyOp48
 70
     0
102
RTVSPropertyOp49
 70
     0
102
RTVSPropertyOp50
 70
     0
102
RTVSPropertyOp51
 70
     0
102
RTVSPropertyOp52
 70
     0
102
RTVSPropertyOp53
 70
     0
102
RTVSPropertyOp54
 70
     0
102
RTVSPropertyOp55
 70
     0
102
RTVSPropertyOp56
 70
     0
102
RTVSPropertyOp57
 70
     0
102
RTVSPost2010Prop28
280
     0
102
RTVSPost2010PropOp28
 70
     0
102
RTVSPost2010Prop29
280
     1
102
RTVSPost2010PropOp29
 70
     0
102
RTVSPost2010Prop30
280
     1
102
RTVSPost2010PropOp30
 70
     0
102
RTVSPost2010Prop31
280
     0
102
RTVSPost2010PropOp31
 70
     0
102
RTVSPost2010Prop32
280
     0
102
RTVSPost2010PropOp32
 70
     0
102
RTVSPost2010Prop33
280
     0
102
RTVSPost2010PropOp33
 70
     0
102
RTVSPost2010Prop34
280
     0
102
RTVSPost2010PropOp34
 70
     0
102
RTVSPost2010Prop35
280
     0
102
RTVSPost2010PropOp35
 70
     0
102
RTVSPost2010Prop36
280
     0
102
RTVSPost2010PropOp36
 70
     0
102
RTVSPost2010Prop37
 90
       50
102
RTVSPost2010PropOp37
 70
     0
102
RTVSPost2010Prop38
140
0.0
102
RTVSPost2010PropOp38
 70
     0
102
RTVSPost2010Prop39
140
1.0
102
RTVSPost2010PropOp39
 70
     0
102
RTVSPost2010Prop40
 90
        0
102
RTVSPost2010PropOp40
 70
     0
102
RTVSPost2010Prop41ColorIndex
 90
       18
102
RTVSPost2010Prop41ColorRGB
 90
        0
102
RTVSPost2010PropOp41
 70
     0
102
RTVSPost2010Prop42
 90
       50
102
RTVSPost2010PropOp42
 70
     0
102
RTVSPost2010Prop43
 90
        3
102
RTVSPost2010PropOp43
 70
     0
102
RTVSPost2010Prop44ColorIndex
 90
        5
102
RTVSPost2010Prop44ColorRGB
 90
      255
102
RTVSPost2010PropOp44
 70
     0
102
RTVSPost2010Prop45
280
     0
102
RTVSPost2010PropOp45
 70
     0
102
RTVSPost2010Prop46
 90
       50
102
RTVSPost2010PropOp46
 70
     0
102
RTVSPost2010Prop47
 90
       50
102
RTVSPost2010PropOp47
 70
     0
102
RTVSPost2010Prop48
 90
       50
102
RTVSPost2010PropOp48
 70
     0
102
RTVSPost2010Prop49
280
     0
102
RTVSPost2010PropOp49
 70
     0
102
RTVSPost2010Prop50
 90
       50
102
RTVSPost2010PropOp50
 70
     0
102
RTVSPost2010Prop51ColorIndex
 90
      256
102
RTVSPost2010Prop51ColorRGB
 90
-16777216
102
RTVSPost2010PropOp51
 70
     0
102
RTVSPost2010Prop52
140
1.0
102
RTVSPost2010PropOp52
 70
     0
102
RTVSPost2010Prop53
 90
        2
102
RTVSPost2010PropOp53
 70
     0
102
RTVSPost2010Prop54
  1
strokes_ogs.tif
102
RTVSPost2010PropOp54
 70
     0
102
RTVSPost2010Prop55
280
     0
102
RTVSPost2010PropOp55
 70
     0
102
RTVSPost2010Prop56
140
1.0
102
RTVSPost2010PropOp56
 70
     0
102
RTVSPost2010Prop57
140
1.0
102
RTVSPost2010PropOp57
 70
     0
  0
XRECORD
  5
13D
102
{ACAD_REACTORS
330
13C
102
}
330
13C
100
AcDbXrecord
280
     1
102
RTVSPropertyOp0
 70
     1
102
RTVSPropertyOp1
 70
     1
102
RTVSPropertyOp2
 70
     1
102
RTVSPropertyOp3
 70
     1
102
RTVSPropertyOp4
 70
     1
102
RTVSPropertyOp5
 70
     1
102
RTVSPropertyOp6
 70
     1
102
RTVSPropertyOp7
 70
     1
102
RTVSPropertyOp8
 70
     1
102
RTVSPropertyOp9
 70
     1
102
RTVSPropertyOp10
 70
     1
102
RTVSPropertyOp11
 70
     1
102
RTVSPropertyOp12
 70
     1
102
RTVSPropertyOp13
 70
     1
102
RTVSPropertyOp14
 70
     1
102
RTVSPropertyOp15
 70
     1
102
RTVSPropertyOp16
 70
     1
102
RTVSPropertyOp17
 70
     1
102
RTVSPropertyOp18
 70
     1
102
RTVSPropertyOp19
 70
     1
102
RTVSPropertyOp20
 70
     1
102
RTVSPropertyOp21
 70
     1
102
RTVSPropertyOp22
 70
     1
102
RTVSPropertyOp23
 70
     1
102
RTVSPropertyOp24
 70
     1
102
RTVSPropertyOp25
 70
     1
102
RTVSPropertyOp26
 70
     1
102
RTVSPropertyOp27
 70
     1
102
RTVSPropertyOp28
 70
     1
102
RTVSPropertyOp29
 70
     1
102
RTVSPropertyOp30
 70
     1
102
RTVSPropertyOp31
 70
     1
102
RTVSPropertyOp32
 70
     1
102
RTVSPropertyOp33
 70
     1
102
RTVSPropertyOp34
 70
     1
102
RTVSPropertyOp35
 70
     1
102
RTVSPropertyOp36
 70
     1
102
RTVSPropertyOp37
 70
     1
102
RTVSPropertyOp38
 70
     1
102
RTVSPropertyOp39
 70
     1
102
RTVSPropertyOp40
 70
     1
102
RTVSPropertyOp41
 70
     1
102
RTVSPropertyOp42
 70
     1
102
RTVSPropertyOp43
 70
     1
102
RTVSPropertyOp44
 70
     1
102
RTVSPropertyOp45
 70
     1
102
RTVSPropertyOp46
 70
     1
102
RTVSPropertyOp47
 70
     1
102
RTVSPropertyOp48
 70
     1
102
RTVSPropertyOp49
 70
     1
102
RTVSPropertyOp50
 70
     1
102
RTVSPropertyOp51
 70
     0
102
RTVSPropertyOp52
 70
     0
102
RTVSPropertyOp53
 70
     1
102
RTVSPropertyOp54
 70
     1
102
RTVSPropertyOp55
 70
     1
102
RTVSPropertyOp56
 70
     1
102
RTVSPropertyOp57
 70
     1
102
RTVSPost2010Prop28
280
     0
102
RTVSPost2010PropOp28
 70
     1
102
RTVSPost2010Prop29
280
     1
102
RTVSPost2010PropOp29
 70
     1
102
RTVSPost2010Prop30
280
     1
102
RTVSPost2010PropOp30
 70
     1
102
RTVSPost2010Prop31
280
     0
102
RTVSPost2010PropOp31
 70
     1
102
RTVSPost2010Prop32
280
     0
102
RTVSPost2010PropOp32
 70
     1
102
RTVSPost2010Prop33
280
     0
102
RTVSPost2010PropOp33
 70
     1
102
RTVSPost2010Prop34
280
     0
102
RTVSPost2010PropOp34
 70
     1
102
RTVSPost2010Prop35
280
     0
102
RTVSPost2010PropOp35
 70
     1
102
RTVSPost2010Prop36
280
     0
102
RTVSPost2010PropOp36
 70
     1
102
RTVSPost2010Prop37
 90
       50
102
RTVSPost2010PropOp37
 70
     1
102
RTVSPost2010Prop38
140
0.0
102
RTVSPost2010PropOp38
 70
     1
102
RTVSPost2010Prop39
140
1.0
102
RTVSPost2010PropOp39
 70
     1
102
RTVSPost2010Prop40
 90
        0
102
RTVSPost2010PropOp40
 70
     1
102
RTVSPost2010Prop41ColorIndex
 90
       18
102
RTVSPost2010Prop41ColorRGB
 90
        0
102
RTVSPost2010PropOp41
 70
     1
102
RTVSPost2010Prop42
 90
       50
102
RTVSPost2010PropOp42
 70
     1
102
RTVSPost2010Prop43
 90
        3
102
RTVSPost2010PropOp43
 70
     1
102
RTVSPost2010Prop44ColorIndex
 90
        5
102
RTVSPost2010Prop44ColorRGB
 90
      255
102
RTVSPost2010PropOp44
 70
     1
102
RTVSPost2010Prop45
280
     0
102
RTVSPost2010PropOp45
 70
     1
102
RTVSPost2010Prop46
 90
       50
102
RTVSPost2010PropOp46
 70
     1
102
RTVSPost2010Prop47
 90
       50
102
RTVSPost2010PropOp47
 70
     1
102
RTVSPost2010Prop48
 90
       50
102
RTVSPost2010PropOp48
 70
     1
102
RTVSPost2010Prop49
280
     0
102
RTVSPost2010PropOp49
 70
     1
102
RTVSPost2010Prop50
 90
       50
102
RTVSPost2010PropOp50
 70
     1
102
RTVSPost2010Prop51ColorIndex
 90
      256
102
RTVSPost2010Prop51ColorRGB
 90
-16777216
102
RTVSPost2010PropOp51
 70
     0
102
RTVSPost2010Prop52
140
1.0
102
RTVSPost2010PropOp52
 70
     0
102
RTVSPost2010Prop53
 90
        2
102
RTVSPost2010PropOp53
 70
     1
102
RTVSPost2010Prop54
  1
strokes_ogs.tif
102
RTVSPost2010PropOp54
 70
     1
102
RTVSPost2010Prop55
280
     0
102
RTVSPost2010PropOp55
 70
     1
102
RTVSPost2010Prop56
140
1.0
102
RTVSPost2010PropOp56
 70
     1
102
RTVSPost2010Prop57
140
1.0
102
RTVSPost2010PropOp57
 70
     1
  0
XRECORD
  5
121
102
{ACAD_REACTORS
330
120
102
}
330
120
100
AcDbXrecord
280
     1
102
RTVSPropertyOp0
 70
     1
102
RTVSPropertyOp1
 70
     1
102
RTVSPropertyOp2
 70
     1
102
RTVSPropertyOp3
 70
     1
102
RTVSPropertyOp4
 70
     1
102
RTVSPropertyOp5
 70
     1
102
RTVSPropertyOp6
 70
     1
102
RTVSPropertyOp7
 70
     1
102
RTVSPropertyOp8
 70
     1
102
RTVSPropertyOp9
 70
     1
102
RTVSPropertyOp10
 70
     1
102
RTVSPropertyOp11
 70
     1
102
RTVSPropertyOp12
 70
     1
102
RTVSPropertyOp13
 70
     1
102
RTVSPropertyOp14
 70
     1
102
RTVSPropertyOp15
 70
     1
102
RTVSPropertyOp16
 70
     1
102
RTVSPropertyOp17
 70
     1
102
RTVSPropertyOp18
 70
     1
102
RTVSPropertyOp19
 70
     1
102
RTVSPropertyOp20
 70
     1
102
RTVSPropertyOp21
 70
     1
102
RTVSPropertyOp22
 70
     1
102
RTVSPropertyOp23
 70
     1
102
RTVSPropertyOp24
 70
     1
102
RTVSPropertyOp25
 70
     1
102
RTVSPropertyOp26
 70
     1
102
RTVSPropertyOp27
 70
     1
102
RTVSPropertyOp28
 70
     1
102
RTVSPropertyOp29
 70
     1
102
RTVSPropertyOp30
 70
     1
102
RTVSPropertyOp31
 70
     1
102
RTVSPropertyOp32
 70
     1
102
RTVSPropertyOp33
 70
     1
102
RTVSPropertyOp34
 70
     1
102
RTVSPropertyOp35
 70
     1
102
RTVSPropertyOp36
 70
     1
102
RTVSPropertyOp37
 70
     1
102
RTVSPropertyOp38
 70
     1
102
RTVSPropertyOp39
 70
     1
102
RTVSPropertyOp40
 70
     1
102
RTVSPropertyOp41
 70
     1
102
RTVSPropertyOp42
 70
     1
102
RTVSPropertyOp43
 70
     1
102
RTVSPropertyOp44
 70
     1
102
RTVSPropertyOp45
 70
     1
102
RTVSPropertyOp46
 70
     1
102
RTVSPropertyOp47
 70
     1
102
RTVSPropertyOp48
 70
     1
102
RTVSPropertyOp49
 70
     1
102
RTVSPropertyOp50
 70
     1
102
RTVSPropertyOp51
 70
     0
102
RTVSPropertyOp52
 70
     0
102
RTVSPropertyOp53
 70
     1
102
RTVSPropertyOp54
 70
     1
102
RTVSPropertyOp55
 70
     1
102
RTVSPropertyOp56
 70
     1
102
RTVSPropertyOp57
 70
     1
102
RTVSPost2010Prop28
280
     0
102
RTVSPost2010PropOp28
 70
     1
102
RTVSPost2010Prop29
280
     1
102
RTVSPost2010PropOp29
 70
     1
102
RTVSPost2010Prop30
280
     1
102
RTVSPost2010PropOp30
 70
     1
102
RTVSPost2010Prop31
280
     0
102
RTVSPost2010PropOp31
 70
     1
102
RTVSPost2010Prop32
280
     0
102
RTVSPost2010PropOp32
 70
     1
102
RTVSPost2010Prop33
280
     0
102
RTVSPost2010PropOp33
 70
     1
102
RTVSPost2010Prop34
280
     0
102
RTVSPost2010PropOp34
 70
     1
102
RTVSPost2010Prop35
280
     0
102
RTVSPost2010PropOp35
 70
     1
102
RTVSPost2010Prop36
280
     0
102
RTVSPost2010PropOp36
 70
     1
102
RTVSPost2010Prop37
 90
       50
102
RTVSPost2010PropOp37
 70
     1
102
RTVSPost2010Prop38
140
0.0
102
RTVSPost2010PropOp38
 70
     1
102
RTVSPost2010Prop39
140
1.0
102
RTVSPost2010PropOp39
 70
     1
102
RTVSPost2010Prop40
 90
        0
102
RTVSPost2010PropOp40
 70
     1
102
RTVSPost2010Prop41ColorIndex
 90
       18
102
RTVSPost2010Prop41ColorRGB
 90
        0
102
RTVSPost2010PropOp41
 70
     1
102
RTVSPost2010Prop42
 90
       50
102
RTVSPost2010PropOp42
 70
     1
102
RTVSPost2010Prop43
 90
        3
102
RTVSPost2010PropOp43
 70
     1
102
RTVSPost2010Prop44ColorIndex
 90
        5
102
RTVSPost2010Prop44ColorRGB
 90
      255
102
RTVSPost2010PropOp44
 70
     1
102
RTVSPost2010Prop45
280
     0
102
RTVSPost2010PropOp45
 70
     1
102
RTVSPost2010Prop46
 90
       50
102
RTVSPost2010PropOp46
 70
     1
102
RTVSPost2010Prop47
 90
       50
102
RTVSPost2010PropOp47
 70
     1
102
RTVSPost2010Prop48
 90
       50
102
RTVSPost2010PropOp48
 70
     1
102
RTVSPost2010Prop49
280
     0
102
RTVSPost2010PropOp49
 70
     1
102
RTVSPost2010Prop50
 90
       50
102
RTVSPost2010PropOp50
 70
     1
102
RTVSPost2010Prop51ColorIndex
 90
      256
102
RTVSPost2010Prop51ColorRGB
 90
-16777216
102
RTVSPost2010PropOp51
 70
     0
102
RTVSPost2010Prop52
140
1.0
102
RTVSPost2010PropOp52
 70
     0
102
RTVSPost2010Prop53
 90
        2
102
RTVSPost2010PropOp53
 70
     1
102
RTVSPost2010Prop54
  1
strokes_ogs.tif
102
RTVSPost2010PropOp54
 70
     1
102
RTVSPost2010Prop55
280
     0
102
RTVSPost2010PropOp55
 70
     1
102
RTVSPost2010Prop56
140
1.0
102
RTVSPost2010PropOp56
 70
     1
102
RTVSPost2010Prop57
140
1.0
102
RTVSPost2010PropOp57
 70
     1
  0
XRECORD
  5
123
102
{ACAD_REACTORS
330
122
102
}
330
122
100
AcDbXrecord
280
     1
102
RTVSPropertyOp0
 70
     1
102
RTVSPropertyOp1
 70
     1
102
RTVSPropertyOp2
 70
     1
102
RTVSPropertyOp3
 70
     1
102
RTVSPropertyOp4
 70
     1
102
RTVSPropertyOp5
 70
     1
102
RTVSPropertyOp6
 70
     1
102
RTVSPropertyOp7
 70
     1
102
RTVSPropertyOp8
 70
     1
102
RTVSPropertyOp9
 70
     1
102
RTVSPropertyOp10
 70
     1
102
RTVSPropertyOp11
 70
     1
102
RTVSPropertyOp12
 70
     1
102
RTVSPropertyOp13
 70
     1
102
RTVSPropertyOp14
 70
     1
102
RTVSPropertyOp15
 70
     1
102
RTVSPropertyOp16
 70
     1
102
RTVSPropertyOp17
 70
     1
102
RTVSPropertyOp18
 70
     1
102
RTVSPropertyOp19
 70
     1
102
RTVSPropertyOp20
 70
     1
102
RTVSPropertyOp21
 70
     1
102
RTVSPropertyOp22
 70
     1
102
RTVSPropertyOp23
 70
     1
102
RTVSPropertyOp24
 70
     1
102
RTVSPropertyOp25
 70
     1
102
RTVSPropertyOp26
 70
     1
102
RTVSPropertyOp27
 70
     1
102
RTVSPropertyOp28
 70
     1
102
RTVSPropertyOp29
 70
     1
102
RTVSPropertyOp30
 70
     1
102
RTVSPropertyOp31
 70
     1
102
RTVSPropertyOp32
 70
     1
102
RTVSPropertyOp33
 70
     1
102
RTVSPropertyOp34
 70
     1
102
RTVSPropertyOp35
 70
     1
102
RTVSPropertyOp36
 70
     1
102
RTVSPropertyOp37
 70
     1
102
RTVSPropertyOp38
 70
     1
102
RTVSPropertyOp39
 70
     1
102
RTVSPropertyOp40
 70
     1
102
RTVSPropertyOp41
 70
     1
102
RTVSPropertyOp42
 70
     1
102
RTVSPropertyOp43
 70
     1
102
RTVSPropertyOp44
 70
     1
102
RTVSPropertyOp45
 70
     1
102
RTVSPropertyOp46
 70
     1
102
RTVSPropertyOp47
 70
     1
102
RTVSPropertyOp48
 70
     1
102
RTVSPropertyOp49
 70
     1
102
RTVSPropertyOp50
 70
     1
102
RTVSPropertyOp51
 70
     0
102
RTVSPropertyOp52
 70
     0
102
RTVSPropertyOp53
 70
     1
102
RTVSPropertyOp54
 70
     1
102
RTVSPropertyOp55
 70
     1
102
RTVSPropertyOp56
 70
     1
102
RTVSPropertyOp57
 70
     1
102
RTVSPost2010Prop28
280
     0
102
RTVSPost2010PropOp28
 70
     1
102
RTVSPost2010Prop29
280
     1
102
RTVSPost2010PropOp29
 70
     1
102
RTVSPost2010Prop30
280
     1
102
RTVSPost2010PropOp30
 70
     1
102
RTVSPost2010Prop31
280
     0
102
RTVSPost2010PropOp31
 70
     1
102
RTVSPost2010Prop32
280
     0
102
RTVSPost2010PropOp32
 70
     1
102
RTVSPost2010Prop33
280
     0
102
RTVSPost2010PropOp33
 70
     1
102
RTVSPost2010Prop34
280
     0
102
RTVSPost2010PropOp34
 70
     1
102
RTVSPost2010Prop35
280
     0
102
RTVSPost2010PropOp35
 70
     1
102
RTVSPost2010Prop36
280
     0
102
RTVSPost2010PropOp36
 70
     1
102
RTVSPost2010Prop37
 90
       50
102
RTVSPost2010PropOp37
 70
     1
102
RTVSPost2010Prop38
140
0.0
102
RTVSPost2010PropOp38
 70
     1
102
RTVSPost2010Prop39
140
1.0
102
RTVSPost2010PropOp39
 70
     1
102
RTVSPost2010Prop40
 90
        0
102
RTVSPost2010PropOp40
 70
     1
102
RTVSPost2010Prop41ColorIndex
 90
       18
102
RTVSPost2010Prop41ColorRGB
 90
        0
102
RTVSPost2010PropOp41
 70
     1
102
RTVSPost2010Prop42
 90
       50
102
RTVSPost2010PropOp42
 70
     1
102
RTVSPost2010Prop43
 90
        3
102
RTVSPost2010PropOp43
 70
     1
102
RTVSPost2010Prop44ColorIndex
 90
        5
102
RTVSPost2010Prop44ColorRGB
 90
      255
102
RTVSPost2010PropOp44
 70
     1
102
RTVSPost2010Prop45
280
     0
102
RTVSPost2010PropOp45
 70
     1
102
RTVSPost2010Prop46
 90
       50
102
RTVSPost2010PropOp46
 70
     1
102
RTVSPost2010Prop47
 90
       50
102
RTVSPost2010PropOp47
 70
     1
102
RTVSPost2010Prop48
 90
       50
102
RTVSPost2010PropOp48
 70
     1
102
RTVSPost2010Prop49
280
     0
102
RTVSPost2010PropOp49
 70
     1
102
RTVSPost2010Prop50
 90
       50
102
RTVSPost2010PropOp50
 70
     1
102
RTVSPost2010Prop51ColorIndex
 90
      256
102
RTVSPost2010Prop51ColorRGB
 90
-16777216
102
RTVSPost2010PropOp51
 70
     0
102
RTVSPost2010Prop52
140
1.0
102
RTVSPost2010PropOp52
 70
     0
102
RTVSPost2010Prop53
 90
        2
102
RTVSPost2010PropOp53
 70
     1
102
RTVSPost2010Prop54
  1
strokes_ogs.tif
102
RTVSPost2010PropOp54
 70
     1
102
RTVSPost2010Prop55
280
     0
102
RTVSPost2010PropOp55
 70
     1
102
RTVSPost2010Prop56
140
1.0
102
RTVSPost2010PropOp56
 70
     1
102
RTVSPost2010Prop57
140
1.0
102
RTVSPost2010PropOp57
 70
     1
  0
XRECORD
  5
125
102
{ACAD_REACTORS
330
124
102
}
330
124
100
AcDbXrecord
280
     1
102
RTVSPropertyOp0
 70
     1
102
RTVSPropertyOp1
 70
     1
102
RTVSPropertyOp2
 70
     1
102
RTVSPropertyOp3
 70
     1
102
RTVSPropertyOp4
 70
     1
102
RTVSPropertyOp5
 70
     1
102
RTVSPropertyOp6
 70
     1
102
RTVSPropertyOp7
 70
     1
102
RTVSPropertyOp8
 70
     1
102
RTVSPropertyOp9
 70
     1
102
RTVSPropertyOp10
 70
     1
102
RTVSPropertyOp11
 70
     1
102
RTVSPropertyOp12
 70
     1
102
RTVSPropertyOp13
 70
     1
102
RTVSPropertyOp14
 70
     1
102
RTVSPropertyOp15
 70
     1
102
RTVSPropertyOp16
 70
     1
102
RTVSPropertyOp17
 70
     1
102
RTVSPropertyOp18
 70
     1
102
RTVSPropertyOp19
 70
     1
102
RTVSPropertyOp20
 70
     1
102
RTVSPropertyOp21
 70
     1
102
RTVSPropertyOp22
 70
     1
102
RTVSPropertyOp23
 70
     1
102
RTVSPropertyOp24
 70
     1
102
RTVSPropertyOp25
 70
     1
102
RTVSPropertyOp26
 70
     1
102
RTVSPropertyOp27
 70
     1
102
RTVSPropertyOp28
 70
     1
102
RTVSPropertyOp29
 70
     1
102
RTVSPropertyOp30
 70
     1
102
RTVSPropertyOp31
 70
     1
102
RTVSPropertyOp32
 70
     1
102
RTVSPropertyOp33
 70
     1
102
RTVSPropertyOp34
 70
     1
102
RTVSPropertyOp35
 70
     1
102
RTVSPropertyOp36
 70
     1
102
RTVSPropertyOp37
 70
     1
102
RTVSPropertyOp38
 70
     1
102
RTVSPropertyOp39
 70
     1
102
RTVSPropertyOp40
 70
     1
102
RTVSPropertyOp41
 70
     1
102
RTVSPropertyOp42
 70
     1
102
RTVSPropertyOp43
 70
     1
102
RTVSPropertyOp44
 70
     1
102
RTVSPropertyOp45
 70
     1
102
RTVSPropertyOp46
 70
     1
102
RTVSPropertyOp47
 70
     1
102
RTVSPropertyOp48
 70
     1
102
RTVSPropertyOp49
 70
     1
102
RTVSPropertyOp50
 70
     1
102
RTVSPropertyOp51
 70
     0
102
RTVSPropertyOp52
 70
     0
102
RTVSPropertyOp53
 70
     1
102
RTVSPropertyOp54
 70
     1
102
RTVSPropertyOp55
 70
     1
102
RTVSPropertyOp56
 70
     1
102
RTVSPropertyOp57
 70
     1
102
RTVSPost2010Prop28
280
     0
102
RTVSPost2010PropOp28
 70
     1
102
RTVSPost2010Prop29
280
     1
102
RTVSPost2010PropOp29
 70
     1
102
RTVSPost2010Prop30
280
     1
102
RTVSPost2010PropOp30
 70
     1
102
RTVSPost2010Prop31
280
     0
102
RTVSPost2010PropOp31
 70
     1
102
RTVSPost2010Prop32
280
     0
102
RTVSPost2010PropOp32
 70
     1
102
RTVSPost2010Prop33
280
     0
102
RTVSPost2010PropOp33
 70
     1
102
RTVSPost2010Prop34
280
     0
102
RTVSPost2010PropOp34
 70
     1
102
RTVSPost2010Prop35
280
     0
102
RTVSPost2010PropOp35
 70
     1
102
RTVSPost2010Prop36
280
     0
102
RTVSPost2010PropOp36
 70
     1
102
RTVSPost2010Prop37
 90
       50
102
RTVSPost2010PropOp37
 70
     1
102
RTVSPost2010Prop38
140
0.0
102
RTVSPost2010PropOp38
 70
     1
102
RTVSPost2010Prop39
140
1.0
102
RTVSPost2010PropOp39
 70
     1
102
RTVSPost2010Prop40
 90
        0
102
RTVSPost2010PropOp40
 70
     1
102
RTVSPost2010Prop41ColorIndex
 90
       18
102
RTVSPost2010Prop41ColorRGB
 90
        0
102
RTVSPost2010PropOp41
 70
     1
102
RTVSPost2010Prop42
 90
       50
102
RTVSPost2010PropOp42
 70
     1
102
RTVSPost2010Prop43
 90
        3
102
RTVSPost2010PropOp43
 70
     1
102
RTVSPost2010Prop44ColorIndex
 90
        5
102
RTVSPost2010Prop44ColorRGB
 90
      255
102
RTVSPost2010PropOp44
 70
     1
102
RTVSPost2010Prop45
280
     0
102
RTVSPost2010PropOp45
 70
     1
102
RTVSPost2010Prop46
 90
       50
102
RTVSPost2010PropOp46
 70
     1
102
RTVSPost2010Prop47
 90
       50
102
RTVSPost2010PropOp47
 70
     1
102
RTVSPost2010Prop48
 90
       50
102
RTVSPost2010PropOp48
 70
     1
102
RTVSPost2010Prop49
280
     0
102
RTVSPost2010PropOp49
 70
     1
102
RTVSPost2010Prop50
 90
       50
102
RTVSPost2010PropOp50
 70
     1
102
RTVSPost2010Prop51ColorIndex
 90
      256
102
RTVSPost2010Prop51ColorRGB
 90
-16777216
102
RTVSPost2010PropOp51
 70
     0
102
RTVSPost2010Prop52
140
1.0
102
RTVSPost2010PropOp52
 70
     0
102
RTVSPost2010Prop53
 90
        2
102
RTVSPost2010PropOp53
 70
     1
102
RTVSPost2010Prop54
  1
strokes_ogs.tif
102
RTVSPost2010PropOp54
 70
     1
102
RTVSPost2010Prop55
280
     0
102
RTVSPost2010PropOp55
 70
     1
102
RTVSPost2010Prop56
140
1.0
102
RTVSPost2010PropOp56
 70
     1
102
RTVSPost2010Prop57
140
1.0
102
RTVSPost2010PropOp57
 70
     1
  0
XRECORD
  5
127
102
{ACAD_REACTORS
330
126
102
}
330
126
100
AcDbXrecord
280
     1
102
RTVSPropertyOp0
 70
     1
102
RTVSPropertyOp1
 70
     1
102
RTVSPropertyOp2
 70
     1
102
RTVSPropertyOp3
 70
     1
102
RTVSPropertyOp4
 70
     1
102
RTVSPropertyOp5
 70
     1
102
RTVSPropertyOp6
 70
     1
102
RTVSPropertyOp7
 70
     1
102
RTVSPropertyOp8
 70
     1
102
RTVSPropertyOp9
 70
     1
102
RTVSPropertyOp10
 70
     1
102
RTVSPropertyOp11
 70
     1
102
RTVSPropertyOp12
 70
     1
102
RTVSPropertyOp13
 70
     1
102
RTVSPropertyOp14
 70
     1
102
RTVSPropertyOp15
 70
     1
102
RTVSPropertyOp16
 70
     1
102
RTVSPropertyOp17
 70
     1
102
RTVSPropertyOp18
 70
     1
102
RTVSPropertyOp19
 70
     1
102
RTVSPropertyOp20
 70
     1
102
RTVSPropertyOp21
 70
     1
102
RTVSPropertyOp22
 70
     1
102
RTVSPropertyOp23
 70
     1
102
RTVSPropertyOp24
 70
     1
102
RTVSPropertyOp25
 70
     1
102
RTVSPropertyOp26
 70
     1
102
RTVSPropertyOp27
 70
     1
102
RTVSPropertyOp28
 70
     1
102
RTVSPropertyOp29
 70
     1
102
RTVSPropertyOp30
 70
     1
102
RTVSPropertyOp31
 70
     1
102
RTVSPropertyOp32
 70
     1
102
RTVSPropertyOp33
 70
     1
102
RTVSPropertyOp34
 70
     1
102
RTVSPropertyOp35
 70
     1
102
RTVSPropertyOp36
 70
     1
102
RTVSPropertyOp37
 70
     1
102
RTVSPropertyOp38
 70
     1
102
RTVSPropertyOp39
 70
     1
102
RTVSPropertyOp40
 70
     1
102
RTVSPropertyOp41
 70
     1
102
RTVSPropertyOp42
 70
     1
102
RTVSPropertyOp43
 70
     1
102
RTVSPropertyOp44
 70
     1
102
RTVSPropertyOp45
 70
     1
102
RTVSPropertyOp46
 70
     1
102
RTVSPropertyOp47
 70
     1
102
RTVSPropertyOp48
 70
     1
102
RTVSPropertyOp49
 70
     1
102
RTVSPropertyOp50
 70
     1
102
RTVSPropertyOp51
 70
     0
102
RTVSPropertyOp52
 70
     0
102
RTVSPropertyOp53
 70
     1
102
RTVSPropertyOp54
 70
     1
102
RTVSPropertyOp55
 70
     1
102
RTVSPropertyOp56
 70
     1
102
RTVSPropertyOp57
 70
     1
102
RTVSPost2010Prop28
280
     0
102
RTVSPost2010PropOp28
 70
     1
102
RTVSPost2010Prop29
280
     1
102
RTVSPost2010PropOp29
 70
     1
102
RTVSPost2010Prop30
280
     1
102
RTVSPost2010PropOp30
 70
     1
102
RTVSPost2010Prop31
280
     0
102
RTVSPost2010PropOp31
 70
     1
102
RTVSPost2010Prop32
280
     0
102
RTVSPost2010PropOp32
 70
     1
102
RTVSPost2010Prop33
280
     0
102
RTVSPost2010PropOp33
 70
     1
102
RTVSPost2010Prop34
280
     0
102
RTVSPost2010PropOp34
 70
     1
102
RTVSPost2010Prop35
280
     0
102
RTVSPost2010PropOp35
 70
     1
102
RTVSPost2010Prop36
280
     0
102
RTVSPost2010PropOp36
 70
     1
102
RTVSPost2010Prop37
 90
       50
102
RTVSPost2010PropOp37
 70
     1
102
RTVSPost2010Prop38
140
0.0
102
RTVSPost2010PropOp38
 70
     1
102
RTVSPost2010Prop39
140
1.0
102
RTVSPost2010PropOp39
 70
     1
102
RTVSPost2010Prop40
 90
        0
102
RTVSPost2010PropOp40
 70
     1
102
RTVSPost2010Prop41ColorIndex
 90
       18
102
RTVSPost2010Prop41ColorRGB
 90
        0
102
RTVSPost2010PropOp41
 70
     1
102
RTVSPost2010Prop42
 90
       50
102
RTVSPost2010PropOp42
 70
     1
102
RTVSPost2010Prop43
 90
        3
102
RTVSPost2010PropOp43
 70
     1
102
RTVSPost2010Prop44ColorIndex
 90
        5
102
RTVSPost2010Prop44ColorRGB
 90
      255
102
RTVSPost2010PropOp44
 70
     1
102
RTVSPost2010Prop45
280
     0
102
RTVSPost2010PropOp45
 70
     1
102
RTVSPost2010Prop46
 90
       50
102
RTVSPost2010PropOp46
 70
     1
102
RTVSPost2010Prop47
 90
       50
102
RTVSPost2010PropOp47
 70
     1
102
RTVSPost2010Prop48
 90
       50
102
RTVSPost2010PropOp48
 70
     1
102
RTVSPost2010Prop49
280
     0
102
RTVSPost2010PropOp49
 70
     1
102
RTVSPost2010Prop50
 90
       50
102
RTVSPost2010PropOp50
 70
     1
102
RTVSPost2010Prop51ColorIndex
 90
      256
102
RTVSPost2010Prop51ColorRGB
 90
-16777216
102
RTVSPost2010PropOp51
 70
     0
102
RTVSPost2010Prop52
140
1.0
102
RTVSPost2010PropOp52
 70
     0
102
RTVSPost2010Prop53
 90
        2
102
RTVSPost2010PropOp53
 70
     1
102
RTVSPost2010Prop54
  1
strokes_ogs.tif
102
RTVSPost2010PropOp54
 70
     1
102
RTVSPost2010Prop55
280
     0
102
RTVSPost2010PropOp55
 70
     1
102
RTVSPost2010Prop56
140
1.0
102
RTVSPost2010PropOp56
 70
     1
102
RTVSPost2010Prop57
140
1.0
102
RTVSPost2010PropOp57
 70
     1
  0
XRECORD
  5
12D
102
{ACAD_REACTORS
330
12C
102
}
330
12C
100
AcDbXrecord
280
     1
102
RTVSPropertyOp0
 70
     1
102
RTVSPropertyOp1
 70
     1
102
RTVSPropertyOp2
 70
     1
102
RTVSPropertyOp3
 70
     1
102
RTVSPropertyOp4
 70
     1
102
RTVSPropertyOp5
 70
     1
102
RTVSPropertyOp6
 70
     1
102
RTVSPropertyOp7
 70
     1
102
RTVSPropertyOp8
 70
     1
102
RTVSPropertyOp9
 70
     1
102
RTVSPropertyOp10
 70
     1
102
RTVSPropertyOp11
 70
     1
102
RTVSPropertyOp12
 70
     1
102
RTVSPropertyOp13
 70
     1
102
RTVSPropertyOp14
 70
     1
102
RTVSPropertyOp15
 70
     1
102
RTVSPropertyOp16
 70
     1
102
RTVSPropertyOp17
 70
     1
102
RTVSPropertyOp18
 70
     1
102
RTVSPropertyOp19
 70
     1
102
RTVSPropertyOp20
 70
     1
102
RTVSPropertyOp21
 70
     1
102
RTVSPropertyOp22
 70
     1
102
RTVSPropertyOp23
 70
     1
102
RTVSPropertyOp24
 70
     1
102
RTVSPropertyOp25
 70
     1
102
RTVSPropertyOp26
 70
     1
102
RTVSPropertyOp27
 70
     1
102
RTVSPropertyOp28
 70
     1
102
RTVSPropertyOp29
 70
     1
102
RTVSPropertyOp30
 70
     1
102
RTVSPropertyOp31
 70
     1
102
RTVSPropertyOp32
 70
     1
102
RTVSPropertyOp33
 70
     1
102
RTVSPropertyOp34
 70
     1
102
RTVSPropertyOp35
 70
     1
102
RTVSPropertyOp36
 70
     1
102
RTVSPropertyOp37
 70
     1
102
RTVSPropertyOp38
 70
     1
102
RTVSPropertyOp39
 70
     1
102
RTVSPropertyOp40
 70
     1
102
RTVSPropertyOp41
 70
     1
102
RTVSPropertyOp42
 70
     1
102
RTVSPropertyOp43
 70
     1
102
RTVSPropertyOp44
 70
     1
102
RTVSPropertyOp45
 70
     1
102
RTVSPropertyOp46
 70
     1
102
RTVSPropertyOp47
 70
     1
102
RTVSPropertyOp48
 70
     1
102
RTVSPropertyOp49
 70
     1
102
RTVSPropertyOp50
 70
     1
102
RTVSPropertyOp51
 70
     0
102
RTVSPropertyOp52
 70
     0
102
RTVSPropertyOp53
 70
     1
102
RTVSPropertyOp54
 70
     1
102
RTVSPropertyOp55
 70
     1
102
RTVSPropertyOp56
 70
     1
102
RTVSPropertyOp57
 70
     1
102
RTVSPost2010Prop28
280
     0
102
RTVSPost2010PropOp28
 70
     1
102
RTVSPost2010Prop29
280
     1
102
RTVSPost2010PropOp29
 70
     1
102
RTVSPost2010Prop30
280
     1
102
RTVSPost2010PropOp30
 70
     1
102
RTVSPost2010Prop31
280
     0
102
RTVSPost2010PropOp31
 70
     1
102
RTVSPost2010Prop32
280
     0
102
RTVSPost2010PropOp32
 70
     1
102
RTVSPost2010Prop33
280
     0
102
RTVSPost2010PropOp33
 70
     1
102
RTVSPost2010Prop34
280
     0
102
RTVSPost2010PropOp34
 70
     1
102
RTVSPost2010Prop35
280
     0
102
RTVSPost2010PropOp35
 70
     1
102
RTVSPost2010Prop36
280
     0
102
RTVSPost2010PropOp36
 70
     1
102
RTVSPost2010Prop37
 90
       50
102
RTVSPost2010PropOp37
 70
     1
102
RTVSPost2010Prop38
140
0.0
102
RTVSPost2010PropOp38
 70
     1
102
RTVSPost2010Prop39
140
1.0
102
RTVSPost2010PropOp39
 70
     1
102
RTVSPost2010Prop40
 90
        0
102
RTVSPost2010PropOp40
 70
     1
102
RTVSPost2010Prop41ColorIndex
 90
       18
102
RTVSPost2010Prop41ColorRGB
 90
        0
102
RTVSPost2010PropOp41
 70
     1
102
RTVSPost2010Prop42
 90
       50
102
RTVSPost2010PropOp42
 70
     1
102
RTVSPost2010Prop43
 90
        3
102
RTVSPost2010PropOp43
 70
     1
102
RTVSPost2010Prop44ColorIndex
 90
        5
102
RTVSPost2010Prop44ColorRGB
 90
      255
102
RTVSPost2010PropOp44
 70
     1
102
RTVSPost2010Prop45
280
     0
102
RTVSPost2010PropOp45
 70
     1
102
RTVSPost2010Prop46
 90
       50
102
RTVSPost2010PropOp46
 70
     1
102
RTVSPost2010Prop47
 90
       50
102
RTVSPost2010PropOp47
 70
     1
102
RTVSPost2010Prop48
 90
       50
102
RTVSPost2010PropOp48
 70
     1
102
RTVSPost2010Prop49
280
     0
102
RTVSPost2010PropOp49
 70
     1
102
RTVSPost2010Prop50
 90
       50
102
RTVSPost2010PropOp50
 70
     1
102
RTVSPost2010Prop51ColorIndex
 90
      256
102
RTVSPost2010Prop51ColorRGB
 90
-16777216
102
RTVSPost2010PropOp51
 70
     0
102
RTVSPost2010Prop52
140
1.0
102
RTVSPost2010PropOp52
 70
     0
102
RTVSPost2010Prop53
 90
        2
102
RTVSPost2010PropOp53
 70
     1
102
RTVSPost2010Prop54
  1
strokes_ogs.tif
102
RTVSPost2010PropOp54
 70
     1
102
RTVSPost2010Prop55
280
     0
102
RTVSPost2010PropOp55
 70
     1
102
RTVSPost2010Prop56
140
1.0
102
RTVSPost2010PropOp56
 70
     1
102
RTVSPost2010Prop57
140
1.0
102
RTVSPost2010PropOp57
 70
     1
  0
XRECORD
  5
141
102
{ACAD_REACTORS
330
140
102
}
330
140
100
AcDbXrecord
280
     1
102
RTVSPropertyOp0
 70
     0
102
RTVSPropertyOp1
 70
     0
102
RTVSPropertyOp2
 70
     0
102
RTVSPropertyOp3
 70
     0
102
RTVSPropertyOp4
 70
     0
102
RTVSPropertyOp5
 70
     0
102
RTVSPropertyOp6
 70
     0
102
RTVSPropertyOp7
 70
     0
102
RTVSPropertyOp8
 70
     0
102
RTVSPropertyOp9
 70
     0
102
RTVSPropertyOp10
 70
     0
102
RTVSPropertyOp11
 70
     0
102
RTVSPropertyOp12
 70
     0
102
RTVSPropertyOp13
 70
     0
102
RTVSPropertyOp14
 70
     2
102
RTVSPropertyOp15
 70
     0
102
RTVSPropertyOp16
 70
     0
102
RTVSPropertyOp17
 70
     0
102
RTVSPropertyOp18
 70
     0
102
RTVSPropertyOp19
 70
     0
102
RTVSPropertyOp20
 70
     0
102
RTVSPropertyOp21
 70
     0
102
RTVSPropertyOp22
 70
     0
102
RTVSPropertyOp23
 70
     0
102
RTVSPropertyOp24
 70
     0
102
RTVSPropertyOp25
 70
     0
102
RTVSPropertyOp26
 70
     0
102
RTVSPropertyOp27
 70
     0
102
RTVSPropertyOp28
 70
     0
102
RTVSPropertyOp29
 70
     0
102
RTVSPropertyOp30
 70
     0
102
RTVSPropertyOp31
 70
     0
102
RTVSPropertyOp32
 70
     0
102
RTVSPropertyOp33
 70
     0
102
RTVSPropertyOp34
 70
     0
102
RTVSPropertyOp35
 70
     0
102
RTVSPropertyOp36
 70
     0
102
RTVSPropertyOp37
 70
     0
102
RTVSPropertyOp38
 70
     0
102
RTVSPropertyOp39
 70
     0
102
RTVSPropertyOp40
 70
     0
102
RTVSPropertyOp41
 70
     0
102
RTVSPropertyOp42
 70
     0
102
RTVSPropertyOp43
 70
     0
102
RTVSPropertyOp44
 70
     0
102
RTVSPropertyOp45
 70
     0
102
RTVSPropertyOp46
 70
     0
102
RTVSPropertyOp47
 70
     0
102
RTVSPropertyOp48
 70
     0
102
RTVSPropertyOp49
 70
     0
102
RTVSPropertyOp50
 70
     0
102
RTVSPropertyOp51
 70
     0
102
RTVSPropertyOp52
 70
     0
102
RTVSPropertyOp53
 70
     0
102
RTVSPropertyOp54
 70
     0
102
RTVSPropertyOp55
 70
     0
102
RTVSPropertyOp56
 70
     0
102
RTVSPropertyOp57
 70
     0
102
RTVSPost2010Prop28
280
     0
102
RTVSPost2010PropOp28
 70
     0
102
RTVSPost2010Prop29
280
     1
102
RTVSPost2010PropOp29
 70
     0
102
RTVSPost2010Prop30
280
     1
102
RTVSPost2010PropOp30
 70
     0
102
RTVSPost2010Prop31
280
     0
102
RTVSPost2010PropOp31
 70
     0
102
RTVSPost2010Prop32
280
     0
102
RTVSPost2010PropOp32
 70
     0
102
RTVSPost2010Prop33
280
     0
102
RTVSPost2010PropOp33
 70
     0
102
RTVSPost2010Prop34
280
     0
102
RTVSPost2010PropOp34
 70
     0
102
RTVSPost2010Prop35
280
     0
102
RTVSPost2010PropOp35
 70
     0
102
RTVSPost2010Prop36
280
     0
102
RTVSPost2010PropOp36
 70
     0
102
RTVSPost2010Prop37
 90
       50
102
RTVSPost2010PropOp37
 70
     0
102
RTVSPost2010Prop38
140
0.0
102
RTVSPost2010PropOp38
 70
     0
102
RTVSPost2010Prop39
140
1.0
102
RTVSPost2010PropOp39
 70
     0
102
RTVSPost2010Prop40
 90
        0
102
RTVSPost2010PropOp40
 70
     0
102
RTVSPost2010Prop41ColorIndex
 90
       18
102
RTVSPost2010Prop41ColorRGB
 90
        0
102
RTVSPost2010PropOp41
 70
     0
102
RTVSPost2010Prop42
 90
       50
102
RTVSPost2010PropOp42
 70
     0
102
RTVSPost2010Prop43
 90
        3
102
RTVSPost2010PropOp43
 70
     0
102
RTVSPost2010Prop44ColorIndex
 90
        5
102
RTVSPost2010Prop44ColorRGB
 90
      255
102
RTVSPost2010PropOp44
 70
     0
102
RTVSPost2010Prop45
280
     0
102
RTVSPost2010PropOp45
 70
     0
102
RTVSPost2010Prop46
 90
       50
102
RTVSPost2010PropOp46
 70
     0
102
RTVSPost2010Prop47
 90
       50
102
RTVSPost2010PropOp47
 70
     0
102
RTVSPost2010Prop48
 90
       50
102
RTVSPost2010PropOp48
 70
     0
102
RTVSPost2010Prop49
280
     0
102
RTVSPost2010PropOp49
 70
     0
102
RTVSPost2010Prop50
 90
       50
102
RTVSPost2010PropOp50
 70
     0
102
RTVSPost2010Prop51ColorIndex
 90
      256
102
RTVSPost2010Prop51ColorRGB
 90
-16777216
102
RTVSPost2010PropOp51
 70
     0
102
RTVSPost2010Prop52
140
1.0
102
RTVSPost2010PropOp52
 70
     0
102
RTVSPost2010Prop53
 90
        2
102
RTVSPost2010PropOp53
 70
     0
102
RTVSPost2010Prop54
  1
strokes_ogs.tif
102
RTVSPost2010PropOp54
 70
     0
102
RTVSPost2010Prop55
280
     0
102
RTVSPost2010PropOp55
 70
     0
102
RTVSPost2010Prop56
140
1.0
102
RTVSPost2010PropOp56
 70
     0
102
RTVSPost2010Prop57
140
1.0
102
RTVSPost2010PropOp57
 70
     0
  0
XRECORD
  5
13B
102
{ACAD_REACTORS
330
13A
102
}
330
13A
100
AcDbXrecord
280
     1
102
RTVSPropertyOp0
 70
     1
102
RTVSPropertyOp1
 70
     1
102
RTVSPropertyOp2
 70
     1
102
RTVSPropertyOp3
 70
     1
102
RTVSPropertyOp4
 70
     1
102
RTVSPropertyOp5
 70
     1
102
RTVSPropertyOp6
 70
     1
102
RTVSPropertyOp7
 70
     1
102
RTVSPropertyOp8
 70
     1
102
RTVSPropertyOp9
 70
     1
102
RTVSPropertyOp10
 70
     1
102
RTVSPropertyOp11
 70
     1
102
RTVSPropertyOp12
 70
     1
102
RTVSPropertyOp13
 70
     1
102
RTVSPropertyOp14
 70
     1
102
RTVSPropertyOp15
 70
     1
102
RTVSPropertyOp16
 70
     1
102
RTVSPropertyOp17
 70
     1
102
RTVSPropertyOp18
 70
     1
102
RTVSPropertyOp19
 70
     1
102
RTVSPropertyOp20
 70
     1
102
RTVSPropertyOp21
 70
     1
102
RTVSPropertyOp22
 70
     1
102
RTVSPropertyOp23
 70
     1
102
RTVSPropertyOp24
 70
     1
102
RTVSPropertyOp25
 70
     1
102
RTVSPropertyOp26
 70
     1
102
RTVSPropertyOp27
 70
     1
102
RTVSPropertyOp28
 70
     1
102
RTVSPropertyOp29
 70
     1
102
RTVSPropertyOp30
 70
     1
102
RTVSPropertyOp31
 70
     1
102
RTVSPropertyOp32
 70
     1
102
RTVSPropertyOp33
 70
     1
102
RTVSPropertyOp34
 70
     1
102
RTVSPropertyOp35
 70
     1
102
RTVSPropertyOp36
 70
     1
102
RTVSPropertyOp37
 70
     1
102
RTVSPropertyOp38
 70
     1
102
RTVSPropertyOp39
 70
     1
102
RTVSPropertyOp40
 70
     1
102
RTVSPropertyOp41
 70
     1
102
RTVSPropertyOp42
 70
     1
102
RTVSPropertyOp43
 70
     1
102
RTVSPropertyOp44
 70
     1
102
RTVSPropertyOp45
 70
     1
102
RTVSPropertyOp46
 70
     1
102
RTVSPropertyOp47
 70
     1
102
RTVSPropertyOp48
 70
     1
102
RTVSPropertyOp49
 70
     1
102
RTVSPropertyOp50
 70
     1
102
RTVSPropertyOp51
 70
     0
102
RTVSPropertyOp52
 70
     0
102
RTVSPropertyOp53
 70
     1
102
RTVSPropertyOp54
 70
     1
102
RTVSPropertyOp55
 70
     1
102
RTVSPropertyOp56
 70
     1
102
RTVSPropertyOp57
 70
     1
102
RTVSPost2010Prop28
280
     0
102
RTVSPost2010PropOp28
 70
     1
102
RTVSPost2010Prop29
280
     1
102
RTVSPost2010PropOp29
 70
     1
102
RTVSPost2010Prop30
280
     1
102
RTVSPost2010PropOp30
 70
     1
102
RTVSPost2010Prop31
280
     0
102
RTVSPost2010PropOp31
 70
     1
102
RTVSPost2010Prop32
280
     0
102
RTVSPost2010PropOp32
 70
     1
102
RTVSPost2010Prop33
280
     0
102
RTVSPost2010PropOp33
 70
     1
102
RTVSPost2010Prop34
280
     0
102
RTVSPost2010PropOp34
 70
     1
102
RTVSPost2010Prop35
280
     0
102
RTVSPost2010PropOp35
 70
     1
102
RTVSPost2010Prop36
280
     0
102
RTVSPost2010PropOp36
 70
     1
102
RTVSPost2010Prop37
 90
       50
102
RTVSPost2010PropOp37
 70
     1
102
RTVSPost2010Prop38
140
0.0
102
RTVSPost2010PropOp38
 70
     1
102
RTVSPost2010Prop39
140
1.0
102
RTVSPost2010PropOp39
 70
     1
102
RTVSPost2010Prop40
 90
        0
102
RTVSPost2010PropOp40
 70
     1
102
RTVSPost2010Prop41ColorIndex
 90
       18
102
RTVSPost2010Prop41ColorRGB
 90
        0
102
RTVSPost2010PropOp41
 70
     1
102
RTVSPost2010Prop42
 90
       50
102
RTVSPost2010PropOp42
 70
     1
102
RTVSPost2010Prop43
 90
        3
102
RTVSPost2010PropOp43
 70
     1
102
RTVSPost2010Prop44ColorIndex
 90
        5
102
RTVSPost2010Prop44ColorRGB
 90
      255
102
RTVSPost2010PropOp44
 70
     1
102
RTVSPost2010Prop45
280
     0
102
RTVSPost2010PropOp45
 70
     1
102
RTVSPost2010Prop46
 90
       50
102
RTVSPost2010PropOp46
 70
     1
102
RTVSPost2010Prop47
 90
       50
102
RTVSPost2010PropOp47
 70
     1
102
RTVSPost2010Prop48
 90
       50
102
RTVSPost2010PropOp48
 70
     1
102
RTVSPost2010Prop49
280
     0
102
RTVSPost2010PropOp49
 70
     1
102
RTVSPost2010Prop50
 90
       50
102
RTVSPost2010PropOp50
 70
     1
102
RTVSPost2010Prop51ColorIndex
 90
      256
102
RTVSPost2010Prop51ColorRGB
 90
-16777216
102
RTVSPost2010PropOp51
 70
     0
102
RTVSPost2010Prop52
140
1.0
102
RTVSPost2010PropOp52
 70
     0
102
RTVSPost2010Prop53
 90
        2
102
RTVSPost2010PropOp53
 70
     1
102
RTVSPost2010Prop54
  1
strokes_ogs.tif
102
RTVSPost2010PropOp54
 70
     1
102
RTVSPost2010Prop55
280
     0
102
RTVSPost2010PropOp55
 70
     1
102
RTVSPost2010Prop56
140
1.0
102
RTVSPost2010PropOp56
 70
     1
102
RTVSPost2010Prop57
140
1.0
102
RTVSPost2010PropOp57
 70
     1
  0
XRECORD
  5
143
102
{ACAD_REACTORS
330
142
102
}
330
142
100
AcDbXrecord
280
     1
102
RTVSPropertyOp0
 70
     0
102
RTVSPropertyOp1
 70
     0
102
RTVSPropertyOp2
 70
     0
102
RTVSPropertyOp3
 70
     0
102
RTVSPropertyOp4
 70
     0
102
RTVSPropertyOp5
 70
     0
102
RTVSPropertyOp6
 70
     0
102
RTVSPropertyOp7
 70
     0
102
RTVSPropertyOp8
 70
     0
102
RTVSPropertyOp9
 70
     0
102
RTVSPropertyOp10
 70
     0
102
RTVSPropertyOp11
 70
     0
102
RTVSPropertyOp12
 70
     0
102
RTVSPropertyOp13
 70
     0
102
RTVSPropertyOp14
 70
     2
102
RTVSPropertyOp15
 70
     0
102
RTVSPropertyOp16
 70
     0
102
RTVSPropertyOp17
 70
     0
102
RTVSPropertyOp18
 70
     0
102
RTVSPropertyOp19
 70
     0
102
RTVSPropertyOp20
 70
     0
102
RTVSPropertyOp21
 70
     0
102
RTVSPropertyOp22
 70
     0
102
RTVSPropertyOp23
 70
     0
102
RTVSPropertyOp24
 70
     0
102
RTVSPropertyOp25
 70
     0
102
RTVSPropertyOp26
 70
     0
102
RTVSPropertyOp27
 70
     0
102
RTVSPropertyOp28
 70
     0
102
RTVSPropertyOp29
 70
     0
102
RTVSPropertyOp30
 70
     0
102
RTVSPropertyOp31
 70
     0
102
RTVSPropertyOp32
 70
     0
102
RTVSPropertyOp33
 70
     0
102
RTVSPropertyOp34
 70
     0
102
RTVSPropertyOp35
 70
     0
102
RTVSPropertyOp36
 70
     0
102
RTVSPropertyOp37
 70
     0
102
RTVSPropertyOp38
 70
     0
102
RTVSPropertyOp39
 70
     0
102
RTVSPropertyOp40
 70
     0
102
RTVSPropertyOp41
 70
     0
102
RTVSPropertyOp42
 70
     0
102
RTVSPropertyOp43
 70
     0
102
RTVSPropertyOp44
 70
     0
102
RTVSPropertyOp45
 70
     0
102
RTVSPropertyOp46
 70
     0
102
RTVSPropertyOp47
 70
     0
102
RTVSPropertyOp48
 70
     0
102
RTVSPropertyOp49
 70
     0
102
RTVSPropertyOp50
 70
     0
102
RTVSPropertyOp51
 70
     0
102
RTVSPropertyOp52
 70
     0
102
RTVSPropertyOp53
 70
     0
102
RTVSPropertyOp54
 70
     0
102
RTVSPropertyOp55
 70
     0
102
RTVSPropertyOp56
 70
     0
102
RTVSPropertyOp57
 70
     0
102
RTVSPost2010Prop28
280
     0
102
RTVSPost2010PropOp28
 70
     0
102
RTVSPost2010Prop29
280
     1
102
RTVSPost2010PropOp29
 70
     0
102
RTVSPost2010Prop30
280
     1
102
RTVSPost2010PropOp30
 70
     0
102
RTVSPost2010Prop31
280
     0
102
RTVSPost2010PropOp31
 70
     0
102
RTVSPost2010Prop32
280
     0
102
RTVSPost2010PropOp32
 70
     0
102
RTVSPost2010Prop33
280
     0
102
RTVSPost2010PropOp33
 70
     0
102
RTVSPost2010Prop34
280
     0
102
RTVSPost2010PropOp34
 70
     0
102
RTVSPost2010Prop35
280
     0
102
RTVSPost2010PropOp35
 70
     0
102
RTVSPost2010Prop36
280
     0
102
RTVSPost2010PropOp36
 70
     0
102
RTVSPost2010Prop37
 90
       50
102
RTVSPost2010PropOp37
 70
     0
102
RTVSPost2010Prop38
140
0.0
102
RTVSPost2010PropOp38
 70
     0
102
RTVSPost2010Prop39
140
1.0
102
RTVSPost2010PropOp39
 70
     0
102
RTVSPost2010Prop40
 90
        0
102
RTVSPost2010PropOp40
 70
     0
102
RTVSPost2010Prop41ColorIndex
 90
       18
102
RTVSPost2010Prop41ColorRGB
 90
        0
102
RTVSPost2010PropOp41
 70
     0
102
RTVSPost2010Prop42
 90
       50
102
RTVSPost2010PropOp42
 70
     0
102
RTVSPost2010Prop43
 90
        3
102
RTVSPost2010PropOp43
 70
     0
102
RTVSPost2010Prop44ColorIndex
 90
        5
102
RTVSPost2010Prop44ColorRGB
 90
      255
102
RTVSPost2010PropOp44
 70
     0
102
RTVSPost2010Prop45
280
     0
102
RTVSPost2010PropOp45
 70
     0
102
RTVSPost2010Prop46
 90
       50
102
RTVSPost2010PropOp46
 70
     0
102
RTVSPost2010Prop47
 90
       50
102
RTVSPost2010PropOp47
 70
     0
102
RTVSPost2010Prop48
 90
       50
102
RTVSPost2010PropOp48
 70
     0
102
RTVSPost2010Prop49
280
     0
102
RTVSPost2010PropOp49
 70
     0
102
RTVSPost2010Prop50
 90
       50
102
RTVSPost2010PropOp50
 70
     0
102
RTVSPost2010Prop51ColorIndex
 90
      256
102
RTVSPost2010Prop51ColorRGB
 90
-16777216
102
RTVSPost2010PropOp51
 70
     0
102
RTVSPost2010Prop52
140
1.0
102
RTVSPost2010PropOp52
 70
     0
102
RTVSPost2010Prop53
 90
        2
102
RTVSPost2010PropOp53
 70
     0
102
RTVSPost2010Prop54
  1
strokes_ogs.tif
102
RTVSPost2010PropOp54
 70
     0
102
RTVSPost2010Prop55
280
     0
102
RTVSPost2010PropOp55
 70
     0
102
RTVSPost2010Prop56
140
1.0
102
RTVSPost2010PropOp56
 70
     0
102
RTVSPost2010Prop57
140
1.0
102
RTVSPost2010PropOp57
 70
     0
  0
XRECORD
  5
131
102
{ACAD_REACTORS
330
130
102
}
330
130
100
AcDbXrecord
280
     1
102
RTVSPropertyOp0
 70
     1
102
RTVSPropertyOp1
 70
     1
102
RTVSPropertyOp2
 70
     1
102
RTVSPropertyOp3
 70
     1
102
RTVSPropertyOp4
 70
     1
102
RTVSPropertyOp5
 70
     1
102
RTVSPropertyOp6
 70
     1
102
RTVSPropertyOp7
 70
     1
102
RTVSPropertyOp8
 70
     1
102
RTVSPropertyOp9
 70
     1
102
RTVSPropertyOp10
 70
     1
102
RTVSPropertyOp11
 70
     1
102
RTVSPropertyOp12
 70
     1
102
RTVSPropertyOp13
 70
     1
102
RTVSPropertyOp14
 70
     1
102
RTVSPropertyOp15
 70
     1
102
RTVSPropertyOp16
 70
     1
102
RTVSPropertyOp17
 70
     1
102
RTVSPropertyOp18
 70
     1
102
RTVSPropertyOp19
 70
     1
102
RTVSPropertyOp20
 70
     1
102
RTVSPropertyOp21
 70
     1
102
RTVSPropertyOp22
 70
     1
102
RTVSPropertyOp23
 70
     1
102
RTVSPropertyOp24
 70
     1
102
RTVSPropertyOp25
 70
     1
102
RTVSPropertyOp26
 70
     1
102
RTVSPropertyOp27
 70
     1
102
RTVSPropertyOp28
 70
     1
102
RTVSPropertyOp29
 70
     1
102
RTVSPropertyOp30
 70
     1
102
RTVSPropertyOp31
 70
     1
102
RTVSPropertyOp32
 70
     1
102
RTVSPropertyOp33
 70
     1
102
RTVSPropertyOp34
 70
     1
102
RTVSPropertyOp35
 70
     1
102
RTVSPropertyOp36
 70
     1
102
RTVSPropertyOp37
 70
     1
102
RTVSPropertyOp38
 70
     1
102
RTVSPropertyOp39
 70
     1
102
RTVSPropertyOp40
 70
     1
102
RTVSPropertyOp41
 70
     1
102
RTVSPropertyOp42
 70
     1
102
RTVSPropertyOp43
 70
     1
102
RTVSPropertyOp44
 70
     1
102
RTVSPropertyOp45
 70
     1
102
RTVSPropertyOp46
 70
     1
102
RTVSPropertyOp47
 70
     1
102
RTVSPropertyOp48
 70
     1
102
RTVSPropertyOp49
 70
     1
102
RTVSPropertyOp50
 70
     1
102
RTVSPropertyOp51
 70
     0
102
RTVSPropertyOp52
 70
     0
102
RTVSPropertyOp53
 70
     1
102
RTVSPropertyOp54
 70
     1
102
RTVSPropertyOp55
 70
     1
102
RTVSPropertyOp56
 70
     1
102
RTVSPropertyOp57
 70
     1
102
RTVSPost2010Prop28
280
     0
102
RTVSPost2010PropOp28
 70
     1
102
RTVSPost2010Prop29
280
     1
102
RTVSPost2010PropOp29
 70
     1
102
RTVSPost2010Prop30
280
     1
102
RTVSPost2010PropOp30
 70
     1
102
RTVSPost2010Prop31
280
     0
102
RTVSPost2010PropOp31
 70
     1
102
RTVSPost2010Prop32
280
     0
102
RTVSPost2010PropOp32
 70
     1
102
RTVSPost2010Prop33
280
     0
102
RTVSPost2010PropOp33
 70
     1
102
RTVSPost2010Prop34
280
     0
102
RTVSPost2010PropOp34
 70
     1
102
RTVSPost2010Prop35
280
     0
102
RTVSPost2010PropOp35
 70
     1
102
RTVSPost2010Prop36
280
     0
102
RTVSPost2010PropOp36
 70
     1
102
RTVSPost2010Prop37
 90
       50
102
RTVSPost2010PropOp37
 70
     1
102
RTVSPost2010Prop38
140
0.0
102
RTVSPost2010PropOp38
 70
     1
102
RTVSPost2010Prop39
140
1.0
102
RTVSPost2010PropOp39
 70
     1
102
RTVSPost2010Prop40
 90
        0
102
RTVSPost2010PropOp40
 70
     1
102
RTVSPost2010Prop41ColorIndex
 90
       18
102
RTVSPost2010Prop41ColorRGB
 90
        0
102
RTVSPost2010PropOp41
 70
     1
102
RTVSPost2010Prop42
 90
       50
102
RTVSPost2010PropOp42
 70
     1
102
RTVSPost2010Prop43
 90
        3
102
RTVSPost2010PropOp43
 70
     1
102
RTVSPost2010Prop44ColorIndex
 90
        5
102
RTVSPost2010Prop44ColorRGB
 90
      255
102
RTVSPost2010PropOp44
 70
     1
102
RTVSPost2010Prop45
280
     0
102
RTVSPost2010PropOp45
 70
     1
102
RTVSPost2010Prop46
 90
       50
102
RTVSPost2010PropOp46
 70
     1
102
RTVSPost2010Prop47
 90
       50
102
RTVSPost2010PropOp47
 70
     1
102
RTVSPost2010Prop48
 90
       50
102
RTVSPost2010PropOp48
 70
     1
102
RTVSPost2010Prop49
280
     0
102
RTVSPost2010PropOp49
 70
     1
102
RTVSPost2010Prop50
 90
       50
102
RTVSPost2010PropOp50
 70
     1
102
RTVSPost2010Prop51ColorIndex
 90
      256
102
RTVSPost2010Prop51ColorRGB
 90
-16777216
102
RTVSPost2010PropOp51
 70
     0
102
RTVSPost2010Prop52
140
1.0
102
RTVSPost2010PropOp52
 70
     0
102
RTVSPost2010Prop53
 90
        2
102
RTVSPost2010PropOp53
 70
     1
102
RTVSPost2010Prop54
  1
strokes_ogs.tif
102
RTVSPost2010PropOp54
 70
     1
102
RTVSPost2010Prop55
280
     0
102
RTVSPost2010PropOp55
 70
     1
102
RTVSPost2010Prop56
140
1.0
102
RTVSPost2010PropOp56
 70
     1
102
RTVSPost2010Prop57
140
1.0
102
RTVSPost2010PropOp57
 70
     1
  0
XRECORD
  5
14F
102
{ACAD_REACTORS
330
14E
102
}
330
14E
100
AcDbXrecord
280
     1
102
RTVSPropertyOp0
 70
     1
102
RTVSPropertyOp1
 70
     1
102
RTVSPropertyOp2
 70
     1
102
RTVSPropertyOp3
 70
     1
102
RTVSPropertyOp4
 70
     1
102
RTVSPropertyOp5
 70
     1
102
RTVSPropertyOp6
 70
     1
102
RTVSPropertyOp7
 70
     1
102
RTVSPropertyOp8
 70
     1
102
RTVSPropertyOp9
 70
     1
102
RTVSPropertyOp10
 70
     1
102
RTVSPropertyOp11
 70
     1
102
RTVSPropertyOp12
 70
     1
102
RTVSPropertyOp13
 70
     1
102
RTVSPropertyOp14
 70
     1
102
RTVSPropertyOp15
 70
     1
102
RTVSPropertyOp16
 70
     1
102
RTVSPropertyOp17
 70
     1
102
RTVSPropertyOp18
 70
     1
102
RTVSPropertyOp19
 70
     1
102
RTVSPropertyOp20
 70
     1
102
RTVSPropertyOp21
 70
     1
102
RTVSPropertyOp22
 70
     1
102
RTVSPropertyOp23
 70
     1
102
RTVSPropertyOp24
 70
     1
102
RTVSPropertyOp25
 70
     1
102
RTVSPropertyOp26
 70
     1
102
RTVSPropertyOp27
 70
     1
102
RTVSPropertyOp28
 70
     1
102
RTVSPropertyOp29
 70
     1
102
RTVSPropertyOp30
 70
     1
102
RTVSPropertyOp31
 70
     1
102
RTVSPropertyOp32
 70
     1
102
RTVSPropertyOp33
 70
     1
102
RTVSPropertyOp34
 70
     1
102
RTVSPropertyOp35
 70
     1
102
RTVSPropertyOp36
 70
     1
102
RTVSPropertyOp37
 70
     1
102
RTVSPropertyOp38
 70
     1
102
RTVSPropertyOp39
 70
     1
102
RTVSPropertyOp40
 70
     1
102
RTVSPropertyOp41
 70
     1
102
RTVSPropertyOp42
 70
     1
102
RTVSPropertyOp43
 70
     1
102
RTVSPropertyOp44
 70
     1
102
RTVSPropertyOp45
 70
     1
102
RTVSPropertyOp46
 70
     1
102
RTVSPropertyOp47
 70
     1
102
RTVSPropertyOp48
 70
     1
102
RTVSPropertyOp49
 70
     1
102
RTVSPropertyOp50
 70
     1
102
RTVSPropertyOp51
 70
     0
102
RTVSPropertyOp52
 70
     0
102
RTVSPropertyOp53
 70
     1
102
RTVSPropertyOp54
 70
     1
102
RTVSPropertyOp55
 70
     1
102
RTVSPropertyOp56
 70
     1
102
RTVSPropertyOp57
 70
     1
102
RTVSPost2010Prop28
280
     0
102
RTVSPost2010PropOp28
 70
     1
102
RTVSPost2010Prop29
280
     1
102
RTVSPost2010PropOp29
 70
     1
102
RTVSPost2010Prop30
280
     1
102
RTVSPost2010PropOp30
 70
     1
102
RTVSPost2010Prop31
280
     0
102
RTVSPost2010PropOp31
 70
     1
102
RTVSPost2010Prop32
280
     0
102
RTVSPost2010PropOp32
 70
     1
102
RTVSPost2010Prop33
280
     0
102
RTVSPost2010PropOp33
 70
     1
102
RTVSPost2010Prop34
280
     0
102
RTVSPost2010PropOp34
 70
     1
102
RTVSPost2010Prop35
280
     0
102
RTVSPost2010PropOp35
 70
     1
102
RTVSPost2010Prop36
280
     0
102
RTVSPost2010PropOp36
 70
     1
102
RTVSPost2010Prop37
 90
       50
102
RTVSPost2010PropOp37
 70
     1
102
RTVSPost2010Prop38
140
0.0
102
RTVSPost2010PropOp38
 70
     1
102
RTVSPost2010Prop39
140
1.0
102
RTVSPost2010PropOp39
 70
     1
102
RTVSPost2010Prop40
 90
        0
102
RTVSPost2010PropOp40
 70
     1
102
RTVSPost2010Prop41ColorIndex
 90
       18
102
RTVSPost2010Prop41ColorRGB
 90
        0
102
RTVSPost2010PropOp41
 70
     1
102
RTVSPost2010Prop42
 90
       50
102
RTVSPost2010PropOp42
 70
     1
102
RTVSPost2010Prop43
 90
        3
102
RTVSPost2010PropOp43
 70
     1
102
RTVSPost2010Prop44ColorIndex
 90
        5
102
RTVSPost2010Prop44ColorRGB
 90
      255
102
RTVSPost2010PropOp44
 70
     1
102
RTVSPost2010Prop45
280
     0
102
RTVSPost2010PropOp45
 70
     1
102
RTVSPost2010Prop46
 90
       50
102
RTVSPost2010PropOp46
 70
     1
102
RTVSPost2010Prop47
 90
       50
102
RTVSPost2010PropOp47
 70
     1
102
RTVSPost2010Prop48
 90
       50
102
RTVSPost2010PropOp48
 70
     1
102
RTVSPost2010Prop49
280
     0
102
RTVSPost2010PropOp49
 70
     1
102
RTVSPost2010Prop50
 90
       50
102
RTVSPost2010PropOp50
 70
     1
102
RTVSPost2010Prop51ColorIndex
 90
      256
102
RTVSPost2010Prop51ColorRGB
 90
-16777216
102
RTVSPost2010PropOp51
 70
     0
102
RTVSPost2010Prop52
140
1.0
102
RTVSPost2010PropOp52
 70
     0
102
RTVSPost2010Prop53
 90
        2
102
RTVSPost2010PropOp53
 70
     1
102
RTVSPost2010Prop54
  1
strokes_ogs.tif
102
RTVSPost2010PropOp54
 70
     1
102
RTVSPost2010Prop55
280
     0
102
RTVSPost2010PropOp55
 70
     1
102
RTVSPost2010Prop56
140
1.0
102
RTVSPost2010PropOp56
 70
     1
102
RTVSPost2010Prop57
140
1.0
102
RTVSPost2010PropOp57
 70
     1
  0
XRECORD
  5
14D
102
{ACAD_REACTORS
330
14C
102
}
330
14C
100
AcDbXrecord
280
     1
102
RTVSPropertyOp0
 70
     1
102
RTVSPropertyOp1
 70
     1
102
RTVSPropertyOp2
 70
     1
102
RTVSPropertyOp3
 70
     1
102
RTVSPropertyOp4
 70
     1
102
RTVSPropertyOp5
 70
     1
102
RTVSPropertyOp6
 70
     1
102
RTVSPropertyOp7
 70
     1
102
RTVSPropertyOp8
 70
     1
102
RTVSPropertyOp9
 70
     1
102
RTVSPropertyOp10
 70
     1
102
RTVSPropertyOp11
 70
     1
102
RTVSPropertyOp12
 70
     1
102
RTVSPropertyOp13
 70
     1
102
RTVSPropertyOp14
 70
     1
102
RTVSPropertyOp15
 70
     1
102
RTVSPropertyOp16
 70
     1
102
RTVSPropertyOp17
 70
     1
102
RTVSPropertyOp18
 70
     1
102
RTVSPropertyOp19
 70
     1
102
RTVSPropertyOp20
 70
     1
102
RTVSPropertyOp21
 70
     1
102
RTVSPropertyOp22
 70
     1
102
RTVSPropertyOp23
 70
     1
102
RTVSPropertyOp24
 70
     1
102
RTVSPropertyOp25
 70
     1
102
RTVSPropertyOp26
 70
     1
102
RTVSPropertyOp27
 70
     1
102
RTVSPropertyOp28
 70
     1
102
RTVSPropertyOp29
 70
     1
102
RTVSPropertyOp30
 70
     1
102
RTVSPropertyOp31
 70
     1
102
RTVSPropertyOp32
 70
     1
102
RTVSPropertyOp33
 70
     1
102
RTVSPropertyOp34
 70
     1
102
RTVSPropertyOp35
 70
     1
102
RTVSPropertyOp36
 70
     1
102
RTVSPropertyOp37
 70
     1
102
RTVSPropertyOp38
 70
     1
102
RTVSPropertyOp39
 70
     1
102
RTVSPropertyOp40
 70
     1
102
RTVSPropertyOp41
 70
     1
102
RTVSPropertyOp42
 70
     1
102
RTVSPropertyOp43
 70
     1
102
RTVSPropertyOp44
 70
     1
102
RTVSPropertyOp45
 70
     1
102
RTVSPropertyOp46
 70
     1
102
RTVSPropertyOp47
 70
     1
102
RTVSPropertyOp48
 70
     1
102
RTVSPropertyOp49
 70
     1
102
RTVSPropertyOp50
 70
     1
102
RTVSPropertyOp51
 70
     0
102
RTVSPropertyOp52
 70
     0
102
RTVSPropertyOp53
 70
     1
102
RTVSPropertyOp54
 70
     1
102
RTVSPropertyOp55
 70
     1
102
RTVSPropertyOp56
 70
     1
102
RTVSPropertyOp57
 70
     1
102
RTVSPost2010Prop28
280
     0
102
RTVSPost2010PropOp28
 70
     1
102
RTVSPost2010Prop29
280
     1
102
RTVSPost2010PropOp29
 70
     1
102
RTVSPost2010Prop30
280
     1
102
RTVSPost2010PropOp30
 70
     1
102
RTVSPost2010Prop31
280
     0
102
RTVSPost2010PropOp31
 70
     1
102
RTVSPost2010Prop32
280
     0
102
RTVSPost2010PropOp32
 70
     1
102
RTVSPost2010Prop33
280
     0
102
RTVSPost2010PropOp33
 70
     1
102
RTVSPost2010Prop34
280
     0
102
RTVSPost2010PropOp34
 70
     1
102
RTVSPost2010Prop35
280
     0
102
RTVSPost2010PropOp35
 70
     1
102
RTVSPost2010Prop36
280
     0
102
RTVSPost2010PropOp36
 70
     1
102
RTVSPost2010Prop37
 90
       50
102
RTVSPost2010PropOp37
 70
     1
102
RTVSPost2010Prop38
140
0.0
102
RTVSPost2010PropOp38
 70
     1
102
RTVSPost2010Prop39
140
1.0
102
RTVSPost2010PropOp39
 70
     1
102
RTVSPost2010Prop40
 90
        0
102
RTVSPost2010PropOp40
 70
     1
102
RTVSPost2010Prop41ColorIndex
 90
       18
102
RTVSPost2010Prop41ColorRGB
 90
        0
102
RTVSPost2010PropOp41
 70
     1
102
RTVSPost2010Prop42
 90
       50
102
RTVSPost2010PropOp42
 70
     1
102
RTVSPost2010Prop43
 90
        3
102
RTVSPost2010PropOp43
 70
     1
102
RTVSPost2010Prop44ColorIndex
 90
        5
102
RTVSPost2010Prop44ColorRGB
 90
      255
102
RTVSPost2010PropOp44
 70
     1
102
RTVSPost2010Prop45
280
     0
102
RTVSPost2010PropOp45
 70
     1
102
RTVSPost2010Prop46
 90
       50
102
RTVSPost2010PropOp46
 70
     1
102
RTVSPost2010Prop47
 90
       50
102
RTVSPost2010PropOp47
 70
     1
102
RTVSPost2010Prop48
 90
       50
102
RTVSPost2010PropOp48
 70
     1
102
RTVSPost2010Prop49
280
     0
102
RTVSPost2010PropOp49
 70
     1
102
RTVSPost2010Prop50
 90
       50
102
RTVSPost2010PropOp50
 70
     1
102
RTVSPost2010Prop51ColorIndex
 90
      256
102
RTVSPost2010Prop51ColorRGB
 90
-16777216
102
RTVSPost2010PropOp51
 70
     0
102
RTVSPost2010Prop52
140
1.0
102
RTVSPost2010PropOp52
 70
     0
102
RTVSPost2010Prop53
 90
        2
102
RTVSPost2010PropOp53
 70
     1
102
RTVSPost2010Prop54
  1
strokes_ogs.tif
102
RTVSPost2010PropOp54
 70
     1
102
RTVSPost2010Prop55
280
     0
102
RTVSPost2010PropOp55
 70
     1
102
RTVSPost2010Prop56
140
1.0
102
RTVSPost2010PropOp56
 70
     1
102
RTVSPost2010Prop57
140
1.0
102
RTVSPost2010PropOp57
 70
     1
  0
XRECORD
  5
147
102
{ACAD_REACTORS
330
146
102
}
330
146
100
AcDbXrecord
280
     1
102
RTVSPropertyOp0
 70
     1
102
RTVSPropertyOp1
 70
     1
102
RTVSPropertyOp2
 70
     1
102
RTVSPropertyOp3
 70
     1
102
RTVSPropertyOp4
 70
     1
102
RTVSPropertyOp5
 70
     1
102
RTVSPropertyOp6
 70
     1
102
RTVSPropertyOp7
 70
     1
102
RTVSPropertyOp8
 70
     1
102
RTVSPropertyOp9
 70
     1
102
RTVSPropertyOp10
 70
     1
102
RTVSPropertyOp11
 70
     1
102
RTVSPropertyOp12
 70
     1
102
RTVSPropertyOp13
 70
     1
102
RTVSPropertyOp14
 70
     1
102
RTVSPropertyOp15
 70
     1
102
RTVSPropertyOp16
 70
     1
102
RTVSPropertyOp17
 70
     1
102
RTVSPropertyOp18
 70
     1
102
RTVSPropertyOp19
 70
     1
102
RTVSPropertyOp20
 70
     1
102
RTVSPropertyOp21
 70
     1
102
RTVSPropertyOp22
 70
     1
102
RTVSPropertyOp23
 70
     1
102
RTVSPropertyOp24
 70
     1
102
RTVSPropertyOp25
 70
     1
102
RTVSPropertyOp26
 70
     1
102
RTVSPropertyOp27
 70
     1
102
RTVSPropertyOp28
 70
     1
102
RTVSPropertyOp29
 70
     1
102
RTVSPropertyOp30
 70
     1
102
RTVSPropertyOp31
 70
     1
102
RTVSPropertyOp32
 70
     1
102
RTVSPropertyOp33
 70
     1
102
RTVSPropertyOp34
 70
     1
102
RTVSPropertyOp35
 70
     1
102
RTVSPropertyOp36
 70
     1
102
RTVSPropertyOp37
 70
     1
102
RTVSPropertyOp38
 70
     1
102
RTVSPropertyOp39
 70
     1
102
RTVSPropertyOp40
 70
     1
102
RTVSPropertyOp41
 70
     1
102
RTVSPropertyOp42
 70
     1
102
RTVSPropertyOp43
 70
     1
102
RTVSPropertyOp44
 70
     1
102
RTVSPropertyOp45
 70
     1
102
RTVSPropertyOp46
 70
     1
102
RTVSPropertyOp47
 70
     1
102
RTVSPropertyOp48
 70
     1
102
RTVSPropertyOp49
 70
     1
102
RTVSPropertyOp50
 70
     1
102
RTVSPropertyOp51
 70
     0
102
RTVSPropertyOp52
 70
     0
102
RTVSPropertyOp53
 70
     1
102
RTVSPropertyOp54
 70
     1
102
RTVSPropertyOp55
 70
     1
102
RTVSPropertyOp56
 70
     1
102
RTVSPropertyOp57
 70
     1
102
RTVSPost2010Prop28
280
     0
102
RTVSPost2010PropOp28
 70
     1
102
RTVSPost2010Prop29
280
     1
102
RTVSPost2010PropOp29
 70
     1
102
RTVSPost2010Prop30
280
     1
102
RTVSPost2010PropOp30
 70
     1
102
RTVSPost2010Prop31
280
     0
102
RTVSPost2010PropOp31
 70
     1
102
RTVSPost2010Prop32
280
     0
102
RTVSPost2010PropOp32
 70
     1
102
RTVSPost2010Prop33
280
     0
102
RTVSPost2010PropOp33
 70
     1
102
RTVSPost2010Prop34
280
     0
102
RTVSPost2010PropOp34
 70
     1
102
RTVSPost2010Prop35
280
     0
102
RTVSPost2010PropOp35
 70
     1
102
RTVSPost2010Prop36
280
     0
102
RTVSPost2010PropOp36
 70
     1
102
RTVSPost2010Prop37
 90
       50
102
RTVSPost2010PropOp37
 70
     1
102
RTVSPost2010Prop38
140
0.0
102
RTVSPost2010PropOp38
 70
     1
102
RTVSPost2010Prop39
140
1.0
102
RTVSPost2010PropOp39
 70
     1
102
RTVSPost2010Prop40
 90
        0
102
RTVSPost2010PropOp40
 70
     1
102
RTVSPost2010Prop41ColorIndex
 90
       18
102
RTVSPost2010Prop41ColorRGB
 90
        0
102
RTVSPost2010PropOp41
 70
     1
102
RTVSPost2010Prop42
 90
       50
102
RTVSPost2010PropOp42
 70
     1
102
RTVSPost2010Prop43
 90
        3
102
RTVSPost2010PropOp43
 70
     1
102
RTVSPost2010Prop44ColorIndex
 90
        5
102
RTVSPost2010Prop44ColorRGB
 90
      255
102
RTVSPost2010PropOp44
 70
     1
102
RTVSPost2010Prop45
280
     0
102
RTVSPost2010PropOp45
 70
     1
102
RTVSPost2010Prop46
 90
       50
102
RTVSPost2010PropOp46
 70
     1
102
RTVSPost2010Prop47
 90
       50
102
RTVSPost2010PropOp47
 70
     1
102
RTVSPost2010Prop48
 90
       50
102
RTVSPost2010PropOp48
 70
     1
102
RTVSPost2010Prop49
280
     0
102
RTVSPost2010PropOp49
 70
     1
102
RTVSPost2010Prop50
 90
       50
102
RTVSPost2010PropOp50
 70
     1
102
RTVSPost2010Prop51ColorIndex
 90
      256
102
RTVSPost2010Prop51ColorRGB
 90
-16777216
102
RTVSPost2010PropOp51
 70
     0
102
RTVSPost2010Prop52
140
1.0
102
RTVSPost2010PropOp52
 70
     0
102
RTVSPost2010Prop53
 90
        2
102
RTVSPost2010PropOp53
 70
     1
102
RTVSPost2010Prop54
  1
strokes_ogs.tif
102
RTVSPost2010PropOp54
 70
     1
102
RTVSPost2010Prop55
280
     0
102
RTVSPost2010PropOp55
 70
     1
102
RTVSPost2010Prop56
140
1.0
102
RTVSPost2010PropOp56
 70
     1
102
RTVSPost2010Prop57
140
1.0
102
RTVSPost2010PropOp57
 70
     1
  0
XRECORD
  5
149
102
{ACAD_REACTORS
330
148
102
}
330
148
100
AcDbXrecord
280
     1
102
RTVSPropertyOp0
 70
     1
102
RTVSPropertyOp1
 70
     1
102
RTVSPropertyOp2
 70
     1
102
RTVSPropertyOp3
 70
     1
102
RTVSPropertyOp4
 70
     1
102
RTVSPropertyOp5
 70
     1
102
RTVSPropertyOp6
 70
     1
102
RTVSPropertyOp7
 70
     1
102
RTVSPropertyOp8
 70
     1
102
RTVSPropertyOp9
 70
     1
102
RTVSPropertyOp10
 70
     1
102
RTVSPropertyOp11
 70
     1
102
RTVSPropertyOp12
 70
     1
102
RTVSPropertyOp13
 70
     1
102
RTVSPropertyOp14
 70
     1
102
RTVSPropertyOp15
 70
     1
102
RTVSPropertyOp16
 70
     1
102
RTVSPropertyOp17
 70
     1
102
RTVSPropertyOp18
 70
     1
102
RTVSPropertyOp19
 70
     1
102
RTVSPropertyOp20
 70
     1
102
RTVSPropertyOp21
 70
     1
102
RTVSPropertyOp22
 70
     1
102
RTVSPropertyOp23
 70
     1
102
RTVSPropertyOp24
 70
     1
102
RTVSPropertyOp25
 70
     1
102
RTVSPropertyOp26
 70
     1
102
RTVSPropertyOp27
 70
     1
102
RTVSPropertyOp28
 70
     1
102
RTVSPropertyOp29
 70
     1
102
RTVSPropertyOp30
 70
     1
102
RTVSPropertyOp31
 70
     1
102
RTVSPropertyOp32
 70
     1
102
RTVSPropertyOp33
 70
     1
102
RTVSPropertyOp34
 70
     1
102
RTVSPropertyOp35
 70
     1
102
RTVSPropertyOp36
 70
     1
102
RTVSPropertyOp37
 70
     1
102
RTVSPropertyOp38
 70
     1
102
RTVSPropertyOp39
 70
     1
102
RTVSPropertyOp40
 70
     1
102
RTVSPropertyOp41
 70
     1
102
RTVSPropertyOp42
 70
     1
102
RTVSPropertyOp43
 70
     1
102
RTVSPropertyOp44
 70
     1
102
RTVSPropertyOp45
 70
     1
102
RTVSPropertyOp46
 70
     1
102
RTVSPropertyOp47
 70
     1
102
RTVSPropertyOp48
 70
     1
102
RTVSPropertyOp49
 70
     1
102
RTVSPropertyOp50
 70
     1
102
RTVSPropertyOp51
 70
     0
102
RTVSPropertyOp52
 70
     0
102
RTVSPropertyOp53
 70
     1
102
RTVSPropertyOp54
 70
     1
102
RTVSPropertyOp55
 70
     1
102
RTVSPropertyOp56
 70
     1
102
RTVSPropertyOp57
 70
     1
102
RTVSPost2010Prop28
280
     0
102
RTVSPost2010PropOp28
 70
     1
102
RTVSPost2010Prop29
280
     1
102
RTVSPost2010PropOp29
 70
     1
102
RTVSPost2010Prop30
280
     1
102
RTVSPost2010PropOp30
 70
     1
102
RTVSPost2010Prop31
280
     0
102
RTVSPost2010PropOp31
 70
     1
102
RTVSPost2010Prop32
280
     0
102
RTVSPost2010PropOp32
 70
     1
102
RTVSPost2010Prop33
280
     0
102
RTVSPost2010PropOp33
 70
     1
102
RTVSPost2010Prop34
280
     0
102
RTVSPost2010PropOp34
 70
     1
102
RTVSPost2010Prop35
280
     0
102
RTVSPost2010PropOp35
 70
     1
102
RTVSPost2010Prop36
280
     0
102
RTVSPost2010PropOp36
 70
     1
102
RTVSPost2010Prop37
 90
       50
102
RTVSPost2010PropOp37
 70
     1
102
RTVSPost2010Prop38
140
0.0
102
RTVSPost2010PropOp38
 70
     1
102
RTVSPost2010Prop39
140
1.0
102
RTVSPost2010PropOp39
 70
     1
102
RTVSPost2010Prop40
 90
        0
102
RTVSPost2010PropOp40
 70
     1
102
RTVSPost2010Prop41ColorIndex
 90
       18
102
RTVSPost2010Prop41ColorRGB
 90
        0
102
RTVSPost2010PropOp41
 70
     1
102
RTVSPost2010Prop42
 90
       50
102
RTVSPost2010PropOp42
 70
     1
102
RTVSPost2010Prop43
 90
        3
102
RTVSPost2010PropOp43
 70
     1
102
RTVSPost2010Prop44ColorIndex
 90
        5
102
RTVSPost2010Prop44ColorRGB
 90
      255
102
RTVSPost2010PropOp44
 70
     1
102
RTVSPost2010Prop45
280
     0
102
RTVSPost2010PropOp45
 70
     1
102
RTVSPost2010Prop46
 90
       50
102
RTVSPost2010PropOp46
 70
     1
102
RTVSPost2010Prop47
 90
       50
102
RTVSPost2010PropOp47
 70
     1
102
RTVSPost2010Prop48
 90
       50
102
RTVSPost2010PropOp48
 70
     1
102
RTVSPost2010Prop49
280
     0
102
RTVSPost2010PropOp49
 70
     1
102
RTVSPost2010Prop50
 90
       50
102
RTVSPost2010PropOp50
 70
     1
102
RTVSPost2010Prop51ColorIndex
 90
      256
102
RTVSPost2010Prop51ColorRGB
 90
-16777216
102
RTVSPost2010PropOp51
 70
     0
102
RTVSPost2010Prop52
140
1.0
102
RTVSPost2010PropOp52
 70
     0
102
RTVSPost2010Prop53
 90
        2
102
RTVSPost2010PropOp53
 70
     1
102
RTVSPost2010Prop54
  1
strokes_ogs.tif
102
RTVSPost2010PropOp54
 70
     1
102
RTVSPost2010Prop55
280
     0
102
RTVSPost2010PropOp55
 70
     1
102
RTVSPost2010Prop56
140
1.0
102
RTVSPost2010PropOp56
 70
     1
102
RTVSPost2010Prop57
140
1.0
102
RTVSPost2010PropOp57
 70
     1
  0
XRECORD
  5
139
102
{ACAD_REACTORS
330
138
102
}
330
138
100
AcDbXrecord
280
     1
102
RTVSPropertyOp0
 70
     1
102
RTVSPropertyOp1
 70
     1
102
RTVSPropertyOp2
 70
     1
102
RTVSPropertyOp3
 70
     1
102
RTVSPropertyOp4
 70
     1
102
RTVSPropertyOp5
 70
     1
102
RTVSPropertyOp6
 70
     1
102
RTVSPropertyOp7
 70
     1
102
RTVSPropertyOp8
 70
     1
102
RTVSPropertyOp9
 70
     1
102
RTVSPropertyOp10
 70
     1
102
RTVSPropertyOp11
 70
     1
102
RTVSPropertyOp12
 70
     1
102
RTVSPropertyOp13
 70
     1
102
RTVSPropertyOp14
 70
     1
102
RTVSPropertyOp15
 70
     1
102
RTVSPropertyOp16
 70
     1
102
RTVSPropertyOp17
 70
     1
102
RTVSPropertyOp18
 70
     1
102
RTVSPropertyOp19
 70
     1
102
RTVSPropertyOp20
 70
     1
102
RTVSPropertyOp21
 70
     1
102
RTVSPropertyOp22
 70
     1
102
RTVSPropertyOp23
 70
     1
102
RTVSPropertyOp24
 70
     1
102
RTVSPropertyOp25
 70
     1
102
RTVSPropertyOp26
 70
     1
102
RTVSPropertyOp27
 70
     1
102
RTVSPropertyOp28
 70
     1
102
RTVSPropertyOp29
 70
     1
102
RTVSPropertyOp30
 70
     1
102
RTVSPropertyOp31
 70
     1
102
RTVSPropertyOp32
 70
     1
102
RTVSPropertyOp33
 70
     1
102
RTVSPropertyOp34
 70
     1
102
RTVSPropertyOp35
 70
     1
102
RTVSPropertyOp36
 70
     1
102
RTVSPropertyOp37
 70
     1
102
RTVSPropertyOp38
 70
     1
102
RTVSPropertyOp39
 70
     1
102
RTVSPropertyOp40
 70
     1
102
RTVSPropertyOp41
 70
     1
102
RTVSPropertyOp42
 70
     1
102
RTVSPropertyOp43
 70
     1
102
RTVSPropertyOp44
 70
     1
102
RTVSPropertyOp45
 70
     1
102
RTVSPropertyOp46
 70
     1
102
RTVSPropertyOp47
 70
     1
102
RTVSPropertyOp48
 70
     1
102
RTVSPropertyOp49
 70
     1
102
RTVSPropertyOp50
 70
     1
102
RTVSPropertyOp51
 70
     0
102
RTVSPropertyOp52
 70
     0
102
RTVSPropertyOp53
 70
     1
102
RTVSPropertyOp54
 70
     1
102
RTVSPropertyOp55
 70
     1
102
RTVSPropertyOp56
 70
     1
102
RTVSPropertyOp57
 70
     1
102
RTVSPost2010Prop28
280
     0
102
RTVSPost2010PropOp28
 70
     1
102
RTVSPost2010Prop29
280
     1
102
RTVSPost2010PropOp29
 70
     1
102
RTVSPost2010Prop30
280
     1
102
RTVSPost2010PropOp30
 70
     1
102
RTVSPost2010Prop31
280
     0
102
RTVSPost2010PropOp31
 70
     1
102
RTVSPost2010Prop32
280
     0
102
RTVSPost2010PropOp32
 70
     1
102
RTVSPost2010Prop33
280
     0
102
RTVSPost2010PropOp33
 70
     1
102
RTVSPost2010Prop34
280
     0
102
RTVSPost2010PropOp34
 70
     1
102
RTVSPost2010Prop35
280
     0
102
RTVSPost2010PropOp35
 70
     1
102
RTVSPost2010Prop36
280
     0
102
RTVSPost2010PropOp36
 70
     1
102
RTVSPost2010Prop37
 90
       50
102
RTVSPost2010PropOp37
 70
     1
102
RTVSPost2010Prop38
140
0.0
102
RTVSPost2010PropOp38
 70
     1
102
RTVSPost2010Prop39
140
1.0
102
RTVSPost2010PropOp39
 70
     1
102
RTVSPost2010Prop40
 90
        0
102
RTVSPost2010PropOp40
 70
     1
102
RTVSPost2010Prop41ColorIndex
 90
       18
102
RTVSPost2010Prop41ColorRGB
 90
        0
102
RTVSPost2010PropOp41
 70
     1
102
RTVSPost2010Prop42
 90
       50
102
RTVSPost2010PropOp42
 70
     1
102
RTVSPost2010Prop43
 90
        3
102
RTVSPost2010PropOp43
 70
     1
102
RTVSPost2010Prop44ColorIndex
 90
        5
102
RTVSPost2010Prop44ColorRGB
 90
      255
102
RTVSPost2010PropOp44
 70
     1
102
RTVSPost2010Prop45
280
     0
102
RTVSPost2010PropOp45
 70
     1
102
RTVSPost2010Prop46
 90
       50
102
RTVSPost2010PropOp46
 70
     1
102
RTVSPost2010Prop47
 90
       50
102
RTVSPost2010PropOp47
 70
     1
102
RTVSPost2010Prop48
 90
       50
102
RTVSPost2010PropOp48
 70
     1
102
RTVSPost2010Prop49
280
     0
102
RTVSPost2010PropOp49
 70
     1
102
RTVSPost2010Prop50
 90
       50
102
RTVSPost2010PropOp50
 70
     1
102
RTVSPost2010Prop51ColorIndex
 90
      256
102
RTVSPost2010Prop51ColorRGB
 90
-16777216
102
RTVSPost2010PropOp51
 70
     0
102
RTVSPost2010Prop52
140
1.0
102
RTVSPost2010PropOp52
 70
     0
102
RTVSPost2010Prop53
 90
        2
102
RTVSPost2010PropOp53
 70
     1
102
RTVSPost2010Prop54
  1
strokes_ogs.tif
102
RTVSPost2010PropOp54
 70
     1
102
RTVSPost2010Prop55
280
     0
102
RTVSPost2010PropOp55
 70
     1
102
RTVSPost2010Prop56
140
1.0
102
RTVSPost2010PropOp56
 70
     1
102
RTVSPost2010Prop57
140
1.0
102
RTVSPost2010PropOp57
 70
     1
  0
XRECORD
  5
12B
102
{ACAD_REACTORS
330
12A
102
}
330
12A
100
AcDbXrecord
280
     1
102
RTVSPropertyOp0
 70
     1
102
RTVSPropertyOp1
 70
     1
102
RTVSPropertyOp2
 70
     1
102
RTVSPropertyOp3
 70
     1
102
RTVSPropertyOp4
 70
     1
102
RTVSPropertyOp5
 70
     1
102
RTVSPropertyOp6
 70
     1
102
RTVSPropertyOp7
 70
     1
102
RTVSPropertyOp8
 70
     1
102
RTVSPropertyOp9
 70
     1
102
RTVSPropertyOp10
 70
     1
102
RTVSPropertyOp11
 70
     1
102
RTVSPropertyOp12
 70
     1
102
RTVSPropertyOp13
 70
     1
102
RTVSPropertyOp14
 70
     1
102
RTVSPropertyOp15
 70
     1
102
RTVSPropertyOp16
 70
     1
102
RTVSPropertyOp17
 70
     1
102
RTVSPropertyOp18
 70
     1
102
RTVSPropertyOp19
 70
     1
102
RTVSPropertyOp20
 70
     1
102
RTVSPropertyOp21
 70
     1
102
RTVSPropertyOp22
 70
     1
102
RTVSPropertyOp23
 70
     1
102
RTVSPropertyOp24
 70
     1
102
RTVSPropertyOp25
 70
     1
102
RTVSPropertyOp26
 70
     1
102
RTVSPropertyOp27
 70
     1
102
RTVSPropertyOp28
 70
     1
102
RTVSPropertyOp29
 70
     1
102
RTVSPropertyOp30
 70
     1
102
RTVSPropertyOp31
 70
     1
102
RTVSPropertyOp32
 70
     1
102
RTVSPropertyOp33
 70
     1
102
RTVSPropertyOp34
 70
     1
102
RTVSPropertyOp35
 70
     1
102
RTVSPropertyOp36
 70
     1
102
RTVSPropertyOp37
 70
     1
102
RTVSPropertyOp38
 70
     1
102
RTVSPropertyOp39
 70
     1
102
RTVSPropertyOp40
 70
     1
102
RTVSPropertyOp41
 70
     1
102
RTVSPropertyOp42
 70
     1
102
RTVSPropertyOp43
 70
     1
102
RTVSPropertyOp44
 70
     1
102
RTVSPropertyOp45
 70
     1
102
RTVSPropertyOp46
 70
     1
102
RTVSPropertyOp47
 70
     1
102
RTVSPropertyOp48
 70
     1
102
RTVSPropertyOp49
 70
     1
102
RTVSPropertyOp50
 70
     1
102
RTVSPropertyOp51
 70
     0
102
RTVSPropertyOp52
 70
     0
102
RTVSPropertyOp53
 70
     1
102
RTVSPropertyOp54
 70
     1
102
RTVSPropertyOp55
 70
     1
102
RTVSPropertyOp56
 70
     1
102
RTVSPropertyOp57
 70
     1
102
RTVSPost2010Prop28
280
     0
102
RTVSPost2010PropOp28
 70
     1
102
RTVSPost2010Prop29
280
     1
102
RTVSPost2010PropOp29
 70
     1
102
RTVSPost2010Prop30
280
     1
102
RTVSPost2010PropOp30
 70
     1
102
RTVSPost2010Prop31
280
     0
102
RTVSPost2010PropOp31
 70
     1
102
RTVSPost2010Prop32
280
     0
102
RTVSPost2010PropOp32
 70
     1
102
RTVSPost2010Prop33
280
     0
102
RTVSPost2010PropOp33
 70
     1
102
RTVSPost2010Prop34
280
     0
102
RTVSPost2010PropOp34
 70
     1
102
RTVSPost2010Prop35
280
     0
102
RTVSPost2010PropOp35
 70
     1
102
RTVSPost2010Prop36
280
     0
102
RTVSPost2010PropOp36
 70
     1
102
RTVSPost2010Prop37
 90
       50
102
RTVSPost2010PropOp37
 70
     1
102
RTVSPost2010Prop38
140
0.0
102
RTVSPost2010PropOp38
 70
     1
102
RTVSPost2010Prop39
140
1.0
102
RTVSPost2010PropOp39
 70
     1
102
RTVSPost2010Prop40
 90
        0
102
RTVSPost2010PropOp40
 70
     1
102
RTVSPost2010Prop41ColorIndex
 90
       18
102
RTVSPost2010Prop41ColorRGB
 90
        0
102
RTVSPost2010PropOp41
 70
     1
102
RTVSPost2010Prop42
 90
       50
102
RTVSPost2010PropOp42
 70
     1
102
RTVSPost2010Prop43
 90
        3
102
RTVSPost2010PropOp43
 70
     1
102
RTVSPost2010Prop44ColorIndex
 90
        5
102
RTVSPost2010Prop44ColorRGB
 90
      255
102
RTVSPost2010PropOp44
 70
     1
102
RTVSPost2010Prop45
280
     0
102
RTVSPost2010PropOp45
 70
     1
102
RTVSPost2010Prop46
 90
       50
102
RTVSPost2010PropOp46
 70
     1
102
RTVSPost2010Prop47
 90
       50
102
RTVSPost2010PropOp47
 70
     1
102
RTVSPost2010Prop48
 90
       50
102
RTVSPost2010PropOp48
 70
     1
102
RTVSPost2010Prop49
280
     0
102
RTVSPost2010PropOp49
 70
     1
102
RTVSPost2010Prop50
 90
       50
102
RTVSPost2010PropOp50
 70
     1
102
RTVSPost2010Prop51ColorIndex
 90
      256
102
RTVSPost2010Prop51ColorRGB
 90
-16777216
102
RTVSPost2010PropOp51
 70
     0
102
RTVSPost2010Prop52
140
1.0
102
RTVSPost2010PropOp52
 70
     0
102
RTVSPost2010Prop53
 90
        2
102
RTVSPost2010PropOp53
 70
     1
102
RTVSPost2010Prop54
  1
strokes_ogs.tif
102
RTVSPost2010PropOp54
 70
     1
102
RTVSPost2010Prop55
280
     0
102
RTVSPost2010PropOp55
 70
     1
102
RTVSPost2010Prop56
140
1.0
102
RTVSPost2010PropOp56
 70
     1
102
RTVSPost2010Prop57
140
1.0
102
RTVSPost2010PropOp57
 70
     1
  0
XRECORD
  5
14B
102
{ACAD_REACTORS
330
14A
102
}
330
14A
100
AcDbXrecord
280
     1
102
RTVSPropertyOp0
 70
     1
102
RTVSPropertyOp1
 70
     1
102
RTVSPropertyOp2
 70
     1
102
RTVSPropertyOp3
 70
     1
102
RTVSPropertyOp4
 70
     1
102
RTVSPropertyOp5
 70
     1
102
RTVSPropertyOp6
 70
     1
102
RTVSPropertyOp7
 70
     1
102
RTVSPropertyOp8
 70
     1
102
RTVSPropertyOp9
 70
     1
102
RTVSPropertyOp10
 70
     1
102
RTVSPropertyOp11
 70
     1
102
RTVSPropertyOp12
 70
     1
102
RTVSPropertyOp13
 70
     1
102
RTVSPropertyOp14
 70
     1
102
RTVSPropertyOp15
 70
     1
102
RTVSPropertyOp16
 70
     1
102
RTVSPropertyOp17
 70
     1
102
RTVSPropertyOp18
 70
     1
102
RTVSPropertyOp19
 70
     1
102
RTVSPropertyOp20
 70
     1
102
RTVSPropertyOp21
 70
     1
102
RTVSPropertyOp22
 70
     1
102
RTVSPropertyOp23
 70
     1
102
RTVSPropertyOp24
 70
     1
102
RTVSPropertyOp25
 70
     1
102
RTVSPropertyOp26
 70
     1
102
RTVSPropertyOp27
 70
     1
102
RTVSPropertyOp28
 70
     1
102
RTVSPropertyOp29
 70
     1
102
RTVSPropertyOp30
 70
     1
102
RTVSPropertyOp31
 70
     1
102
RTVSPropertyOp32
 70
     1
102
RTVSPropertyOp33
 70
     1
102
RTVSPropertyOp34
 70
     1
102
RTVSPropertyOp35
 70
     1
102
RTVSPropertyOp36
 70
     1
102
RTVSPropertyOp37
 70
     1
102
RTVSPropertyOp38
 70
     1
102
RTVSPropertyOp39
 70
     1
102
RTVSPropertyOp40
 70
     1
102
RTVSPropertyOp41
 70
     1
102
RTVSPropertyOp42
 70
     1
102
RTVSPropertyOp43
 70
     1
102
RTVSPropertyOp44
 70
     1
102
RTVSPropertyOp45
 70
     1
102
RTVSPropertyOp46
 70
     1
102
RTVSPropertyOp47
 70
     1
102
RTVSPropertyOp48
 70
     1
102
RTVSPropertyOp49
 70
     1
102
RTVSPropertyOp50
 70
     1
102
RTVSPropertyOp51
 70
     0
102
RTVSPropertyOp52
 70
     0
102
RTVSPropertyOp53
 70
     1
102
RTVSPropertyOp54
 70
     1
102
RTVSPropertyOp55
 70
     1
102
RTVSPropertyOp56
 70
     1
102
RTVSPropertyOp57
 70
     1
102
RTVSPost2010Prop28
280
     0
102
RTVSPost2010PropOp28
 70
     1
102
RTVSPost2010Prop29
280
     1
102
RTVSPost2010PropOp29
 70
     1
102
RTVSPost2010Prop30
280
     1
102
RTVSPost2010PropOp30
 70
     1
102
RTVSPost2010Prop31
280
     0
102
RTVSPost2010PropOp31
 70
     1
102
RTVSPost2010Prop32
280
     0
102
RTVSPost2010PropOp32
 70
     1
102
RTVSPost2010Prop33
280
     0
102
RTVSPost2010PropOp33
 70
     1
102
RTVSPost2010Prop34
280
     0
102
RTVSPost2010PropOp34
 70
     1
102
RTVSPost2010Prop35
280
     0
102
RTVSPost2010PropOp35
 70
     1
102
RTVSPost2010Prop36
280
     0
102
RTVSPost2010PropOp36
 70
     1
102
RTVSPost2010Prop37
 90
       50
102
RTVSPost2010PropOp37
 70
     1
102
RTVSPost2010Prop38
140
0.0
102
RTVSPost2010PropOp38
 70
     1
102
RTVSPost2010Prop39
140
1.0
102
RTVSPost2010PropOp39
 70
     1
102
RTVSPost2010Prop40
 90
        0
102
RTVSPost2010PropOp40
 70
     1
102
RTVSPost2010Prop41ColorIndex
 90
       18
102
RTVSPost2010Prop41ColorRGB
 90
        0
102
RTVSPost2010PropOp41
 70
     1
102
RTVSPost2010Prop42
 90
       50
102
RTVSPost2010PropOp42
 70
     1
102
RTVSPost2010Prop43
 90
        3
102
RTVSPost2010PropOp43
 70
     1
102
RTVSPost2010Prop44ColorIndex
 90
        5
102
RTVSPost2010Prop44ColorRGB
 90
      255
102
RTVSPost2010PropOp44
 70
     1
102
RTVSPost2010Prop45
280
     0
102
RTVSPost2010PropOp45
 70
     1
102
RTVSPost2010Prop46
 90
       50
102
RTVSPost2010PropOp46
 70
     1
102
RTVSPost2010Prop47
 90
       50
102
RTVSPost2010PropOp47
 70
     1
102
RTVSPost2010Prop48
 90
       50
102
RTVSPost2010PropOp48
 70
     1
102
RTVSPost2010Prop49
280
     0
102
RTVSPost2010PropOp49
 70
     1
102
RTVSPost2010Prop50
 90
       50
102
RTVSPost2010PropOp50
 70
     1
102
RTVSPost2010Prop51ColorIndex
 90
      256
102
RTVSPost2010Prop51ColorRGB
 90
-16777216
102
RTVSPost2010PropOp51
 70
     0
102
RTVSPost2010Prop52
140
1.0
102
RTVSPost2010PropOp52
 70
     0
102
RTVSPost2010Prop53
 90
        2
102
RTVSPost2010PropOp53
 70
     1
102
RTVSPost2010Prop54
  1
strokes_ogs.tif
102
RTVSPost2010PropOp54
 70
     1
102
RTVSPost2010Prop55
280
     0
102
RTVSPost2010PropOp55
 70
     1
102
RTVSPost2010Prop56
140
1.0
102
RTVSPost2010PropOp56
 70
     1
102
RTVSPost2010Prop57
140
1.0
102
RTVSPost2010PropOp57
 70
     1
  0
ENDSEC
  0
EOF
